Allister

None Of My Friends Are Punks

Allister

12 exibições
|-------------------|  |------------------|  |-----------------|
|-------------------|  |------------------|  |-----------------|
|-2222--------------|x2|-22222222---------|x1|-2222--------0-2-|x1
|-----0000-22222222-|  |---------00000000-|  |-----0000-22-----|

|-------------------|  |------------------|  |-----------------|
|-------------------|  |------------------|  |-----------------|
|-2222--------------|x2|-22222222---------|x1|-2222--------0-2-|x1
|-----0000-22222222-|  |---------00000000-|  |-----0000-22-----|

|-------------------|  |------------------|  |----------------|
|-------------------|  |------------------|  |----------------|
|-4444--------------|x2|-44444444---------|x1|-4444-------2-4-|x1
|-----2222-44444444-|  |---------22222222-|  |-----2222-44----|

|-------------------|  |------------------|  |----------------|
|-------------------|  |------------------|  |----------------|
|-4444--------------|x2|-44444444---------|x1|-4444-------2-4-|x1
|-----2222-44444444-|  |---------22222222-|  |-----2222-44----|


Enviada por Sem inscrição
Nº de acordes: