Transcribed by Travis Nutt

 Intro
  Fast Rock Q=108
 4/4
  Gtr I
  W          H.      S S S S
|----------|-----------------|
|----------|---------5-3-----|
|----------|-------------3---|
|----------|---------------3-|


 Verse 1, 2
  $
  S S S S S S S S S S S S E E   S S S S S S S S S S S S E E
|-----------------------------|-----------------------------|
|-----------------------------|-----------------------------|
|-------------------------3---|-------------------------3---|
|-3-3-3-3-3-3-3-3-3-3-3-3---1-|-3-3-3-3-3-3-3-3-3-3-3-3---1-|


  S S S S S S S S S S S S E E   S S S S S S S S S S S S E E
|-----------------------------|-----------------------------||
|-----------------------------|-----------------------------||
|-------------------------3---|-------------------------3---||
|-3-3-3-3-3-3-3-3-3-3-3-3---1-|-3-3-3-3-3-3-3-3-3-3-3-3---1-||


 Pre-Chorus
  S S S S S S S S S S S S S S S S   S S S S S S S S S S S S S S S S
|---------------------------------|---------------------------------|
|---------------------------------|---------------------------------|
|-----------------3-3-3-3-3-3-3-3-|---------------------------------|
|-0-0-0-0-0-0-0-0-----------------|-3-3-3-3-3-3-3-3-1-1-1-1-1-1-1-1-|


  S S S S S S S S S S S S S S S S   S S S S S S S S S Q..
|---------------------------------|--------------------------||
|---------------------------------|--------------------------||
|-----------------3-3-3-3-3-3-3-3-|-5-5-5-5-5-5-5-5-5--------||
|-0-0-0-0-0-0-0-0-----------------|--------------------------||


 Chorus
  S S S S S S S S S S S S S S S S   S S S S S S S S S S S S S S S S
|---------------------------------|---------------------------------|
|---------------------------------|---------------------------------|
|---------------------------------|-0-0-0-0-0-0-0-0-3-3-3-3-3-3-3-3-|
|-3-3-3-3-3-3-3-3-0-0-0-0-0-0-0-0-|---------------------------------|


  S S S S S S S S S S S S S S S S   S S S S S S S S S S S S S S S S
|---------------------------------|---------------------------------|
|---------------------------------|---------------------------------|
|---------------------------------|-0-0-0-0-0-0-0-0-3-3-3-3-3-3-3-3-|
|-3-3-3-3-3-3-3-3-0-0-0-0-0-0-0-0-|---------------------------------|


                                                      D.S.
  S S S S S S S S S S S S E E   S S S S S S S S S S S S E E
|-----------------------------|-----------------------------||
|-----------------------------|-----------------------------||
|-------------------------3---|-------------------------3---||
|-3-3-3-3-3-3-3-3-3-3-3-3---1-|-3-3-3-3-3-3-3-3-3-3-3-3---1-||


   Verse 3
    S S S S S S S S S S S S E E   S S S S S S S S S S S S E E
||------------------------------|------------------------------||
||o-----------------------------|-----------------------------o||
||o-------------------------3---|-------------------------3---o||
||--3-3-3-3-3-3-3-3-3-3-3-3---1-|-3-3-3-3-3-3-3-3-3-3-3-3---1--||


 Pre-Chorus
  S S S S S S S S S S S S S S S S   S S S S S S S S S S S S S S S S
|---------------------------------|---------------------------------|
|---------------------------------|---------------------------------|
|-----------------3-3-3-3-3-3-3-3-|---------------------------------|
|-0-0-0-0-0-0-0-0-----------------|-3-3-3-3-3-3-3-3-1-1-1-1-1-1-1-1-|


  S S S S S S S S S S S S S S S S   S S S S S S S S S Q..
|---------------------------------|-------------------------|
|---------------------------------|-------------------------|
|-----------------3-3-3-3-3-3-3-3-|-5-5-5-5-5-5-5-5-5-------|
|-0-0-0-0-0-0-0-0-----------------|-------------------------|


 Out-Chorus
  S S S S S S S S S S S S S S S S   S S S S S S S S S S S S S S S S
|---------------------------------|---------------------------------|
|---------------------------------|---------------------------------|
|---------------------------------|-0-0-0-0-0-0-0-0-3-3-3-3-3-3-3-3-|
|-3-3-3-3-3-3-3-3-0-0-0-0-0-0-0-0-|---------------------------------|


  S S S S S S S S S S S S S S S S   S S S S S S S S S S S S S S S S
|---------------------------------|---------------------------------|
|---------------------------------|---------------------------------|
|---------------------------------|-0-0-0-0-0-0-0-0-3-3-3-3-3-3-3-3-|
|-3-3-3-3-3-3-3-3-0-0-0-0-0-0-0-0-|---------------------------------|


  S S S S S S S S S S S S E E   S H..
|-----------------------------|----------*|
|-----------------------------|----------*|
|-------------------------3---|----------*|
|-3-3-3-3-3-3-3-3-3-3-3-3---1-|-3--------*|


Enviada por Sem inscrição
Nº de acordes: