G|---------------------------------------|
D|-----------5-5---5-7-333-----3---3-5---|
A|---7---5-7-----5---------3-3---3-------|
E|-5---8---------------------------------|

G|---------------------------------------|
D|-----------5-5-----333-----5-5-7-------|
A|---7---5-7-------------3-3-------5-----|
E|-5---8---------333---------------------|

 Primeira parte seguência: Am / G / F / G

G|---------------------------------------|
D|-------0-2----------------33---3---5---|
A|-3---3-----------------33----3---3-----|
E|---3-------3-3-5-5-111-----------------|

 Segunda parte seguência: C / Am / F / G 
OBS: Escuta meu o contra baixo desta música, ele é um baixo bem groove.


Enviada por Sem inscrição
Nº de acordes: