Capotraste 5ª casa

Tom: G

Intro: G  D9/F#  Em7  C


        G                  D9/F#
E|-----------------------0------0-------
B|-3---3------3p0---------3------3------
G|-0-----0---0---0------2---2-----------
D|-0--0-----0-----0----0-------0--------
A|--------------------------------------
E|-3-------3----------2-------2---------


        Em7              C
E|-------------------------------
B|-3---3------3p0--------1-1-----
G|-0----0----0---0------0--0h2---
D|-2--2-----2-----2----2---2-----
A|--------------------3----------
E|-0-------0---------------------


Primeira parte:

      G
Onde você pensa que vai
           Bm
Com essas malas jogadas no chão
          C
Com esse rosto coberto de pranto
        Cm
E essa sombra no seu coração

Segunda parte:

      G
Onde você pensa que vai
         Bm
Senta aqui  ainda não acabou
         C
Sei que nunca fui o mais perfeito
       Cm
Nunca dei o que você sonhou

Mas agora eu posso ver

Refrão:

                G
Que eu não saberia
          
Acordar todo dia
              D9
Olhar do meu lado e não te sentir
              Em7
Não me aceitaria

Olhando no espelho
                C
Sabendo que um dia te deixei partir

           G
Eu não imagino como seja o mundo
              D9
Sem você por perto eu não posso seguir
       Em7
Me desculpa por tudo que fiz
               C
Se te fiz infeliz e nunca admiti

   G   D9/F#
Te amo
   Em7  C
Te amo
   G   D9/F#
Te amo
   Em7  C
Te amo

G  D9/F#  Em7  C

"REPETE SEGUNDA PARTE"

"REPETE REFRÃO 2X"

G


Enviada por Sem inscrição
Nº de acordes: 7