Tom: F

Intro: F  C  Dm  C  Bb9

Solo Intro: 
Parte 1 de 2

E|----------------------------------------------------|
B|----------------------------------------------------|
G|-3/5-5-5h7-7-5-5/10-10~-----------------------------|
D|----------------------------------------------------|
A|----------------------------------------------------|
E|----------------------------------------------------|


Parte 2 de 2

E|----------------------------------------------------|
B|---------------6/8\6-5---5h6--1h3-1-----------------|
G|-3/5-5-5h7-7-5---------5-5h7--2h3-2-----------------|
D|----------------------------------------------------|
A|----------------------------------------------------|
E|----------------------------------------------------|


Primeira Parte:
F
  Seu polícia
                         C
É que eu separei recentemente
       Dm              C
De paixão eu tô doente
      Bb9
Será que o senhor me entende

F
  Os vizinhos estão reclamando
              C
Do volume do meu som
       Dm
Mas enquanto ela não voltar
    Bb9
Eu vou continuar

Refrão:
               F
Me afogando no álcool
                       C
Com o som do carro no talo
         Dm
Manda a multa que eu vou pagar
       Bb9
Mas enquanto ela não voltar

              F
Sofrimento é mato
              C
Coração em pedaço
     Dm              C
Compreenda por favor
      Bb9
O meu amor me deixou

Base Solo:

F  C  Dm  Bb9

Solo Principal:
Parte 1 de 4

E|----------------------------------------------------|
B|----------------------------------------------------|
G|-3/5-5-5h7-7-5-5/10-10~-----------------------------|
D|----------------------------------------------------|
A|----------------------------------------------------|
E|----------------------------------------------------|


Parte 2 de 4

E|----------------------------------------------------|
B|-----------------6/8-8\6-5~-------------------------|
G|-3/5-5-5h7-7-5-5------------------------------------|
D|----------------------------------------------------|
A|----------------------------------------------------|
E|----------------------------------------------------|


Parte 3 de 4

E|--------------------------10-10---8---6-------------|
B|-5/10-10-10\8-8\6-6---------------------------------|
G|-5/10-10-10\9-9\7-7--7/10-------9---7---------------|
D|----------------------------------------------------|
A|----------------------------------------------------|
E|----------------------------------------------------|


Parte 4 de 4

E|-----5h6p5------------------------------------------|
B|-----------8-6-8/10---------------------------------|
G|-3/5------------------------------------------------|
D|----------------------------------------------------|
A|----------------------------------------------------|
E|----------------------------------------------------|


Primeira Parte:
F
  Seu polícia
                         C
É que eu separei recentemente
       Dm
De paixão eu tô doente
      Bb9
Será que o senhor me entende

F
  Os vizinhos estão reclamando
              C
Do volume do meu som
       Dm
Mas enquanto ela não voltar
    Bb9
Eu vou continuar

Refrão:
               F
Me afogando no álcool
                       C
Com o som do carro no talo
         Dm
Manda a multa que eu vou pagar
       Bb9
Mas enquanto ela não voltar

              F
Sofrimento é mato
              C
Coração em pedaço
     Dm              C
Compreenda por favor
      Bb9
O meu amor me deixou

Final:
 B9            F#
Me afogando no álcool
                       C#9
Com o som do carro no talo
         D#m
Manda a multa que eu vou pagar
       B9
Mas enquanto ela não voltar

              F#
Sofrimento é mato
              C#9
Coração em pedaço
     D#m             C#9
Compreenda por favor
      B9             F#
O meu amor me deixou


Enviada por Sem inscrição
Nº de acordes: 8