Victor e Leo

Lembranças De Amor

Victor e Leo

24.693 exibições
Intro: D Bm D Bm A

e|---------------------------------------------------------------|
B|-10-10------------------------10-10----------------------------|
G|-------11-11--9-9--7-9/11-----------11-11--9-9--7-7/9--7-------|
D|---------------------------------------------------------9-----|
A|---------------------------------------------------------------|
E|---------------------------------------------------------------|

e|---------------------------------------------------------------|
B|---------------------------------------------------------------|
G|-7-7-------------------7-7-------------------------------------|
D|-----9-9-7-7---5/7---------9-9-7-7---7/9--------7-9-9/11-------|
A|-------------9---------------------9----------7----------------|
E|---------------------------------------------------------------|

Bm        G
Veja só

Sei que palavras não consertam nada
                D
Mas eu acho que é melhor
         A
A gente conversar

                        1) Quando acaba de falar "Afinal..."
Bm       G              e|------5/7---|
Afinal                  B|---3--------|

O nosso caso não difere de outros casos
                        * Pra acompanhar o Ré
       D                e|---------------2---|
Que acabaram mal        B|---3-3-3---3-3---3-|
         A
E só pra te lembrar
        G
Eu já sofri demais
                 A
Mas  longe de você
             D         A
Sofrerei bem mais

*Refrão: 2 vezes

   D                                         Em
Preciso te dizer o que acontece com meu sentimento
         A
Chego em casa, não te vejo
                           Bm
O meu desejo é te ligar correndo
  D                                         Em  
E pouco a pouco, a solidão e o silêncio me abraçam
          G
Minha alegria passou
         A                    Bm         A 
Só as lembranças de amor, não passam

*Solo: D Bm D Bm A

e|---------------------------------------------------------------|
B|-10-10------------------------10-10----------------------------|
G|-------11-11--9-9--7-9/11-----------11-11--9-9--7-7/9--7-------|
D|---------------------------------------------------------9-----|
A|---------------------------------------------------------------|
E|---------------------------------------------------------------|

e|---------------------------------------------------------------|
B|---------------------------------------------------------------|
G|-7-7-------------------7-7-------------------------------------|
D|-----9-9-7-7---5/7---------9-9-7-7---7/9--------7-9-9/11-------|
A|-------------9---------------------9----------7----------------|
E|---------------------------------------------------------------|

Bm       G              2) Quando acaba de falar "Afinal..."
Afinal                  e|-----7-5-3--|
                        B|---7--------|
O nosso caso não difere de outros casos
       D                * Pra acompanhar o D
Que acabaram mal        e|---------------2---|
                        B|---3-3-3---3-3---3-|
         A
E só pra te lembrar
        G
Eu já sofri demais
                 A
Mas  longe de você
             D         A
Sofrerei bem mais

*Refrão: 2 vezes

   D                                         Em
Preciso te dizer o que acontece com meu sentimento
         A
Chego em casa, não te vejo
                           Bm
O meu desejo é te ligar correndo
  D                                         Em  
E pouco a pouco, a solidão e o silêncio me abraçam
          G
Minha alegria passou
         A                    Bm          
Só as lembranças de amor, não passam

   D                                         Em
Preciso te dizer o que acontece com meu sentimento
         A
Chego em casa, não te vejo
                           Bm       e|---7-5-----------------|
O meu desejo é te ligar correndo    B|-7-----5-8/7---5-3-2-3-|

  D                                         Em  
E pouco a pouco, a solidão e o silêncio me abraçam
          G             e|-----10-9-----|
Minha alegria passou    B|--10------10--|

         A                  e|-----10-9-----|
Só as lembranças de amor,   B|--10------10--|

Bm           G      A    D
não passam


Enviada por Sem inscrição
Nº de acordes: 5