Victor e Leo

Cuidador Do Fogo

Victor e Leo

5.173 exibições
Tom: C
Intro: (C G Am F) 2x

RIFF 1
e--------------0-0------------
B--------------1-1------------
G--------------0-0------------
D-0-0h2-0------2-2------------
A---------2-3--3-3------------
E-----------------------------

RIFF 2
e-------------------------------------
B-------------------------------------
G-------------------------------------
D-10-10-10-8-8-5-7p5/3-5-3-3h5-7-7/5--
A-------------------------------------
E-------------------------------------

e-------------------------------------
B-------------------------------------
G-9-9-9-9-7-7-5-5-4-4-2-2-------------
D-------------------------5-3-3h5-----
A-------------------------------------
E-------------------------------------

           C  
O fogo não pode apagar
              Am 
Por aqui devo permanecer
            F                       G 
Ao seu lado sou mais que um simples alguém
                 C
Essa chama que insiste em chamar
              Am
Pelo meu nome sem se render
             F
Rodeado de estrelas
                 G
Bebo sem te esquecer

Pré-Refrão:

       F          C
Sou um curandeiro louco
       G/B        Am  
Sou o cuidador do fogo
                    F       G       C    RIFF 1
Sou alguém que pede pra você me acender

Refrão: 2x

                 F
Acenda a minha escuridão
                Am 
Me mostre o seu clarão
                 Dm
Diga logo que me quer
           G                     C 
Só eu sei acender seu fogo de mulher

Solo: F C F G

e-------------------------------------
B-------------------------------------
G-------------------------------------
D-10-10-10-8-8-5-7p5/3-5-3-3h5-7-7/5--
A-------------------------------------
E-------------------------------------

e-------------------------------------
B-------------------------------------
G-9-9-9-9-7-7-5-5-4-4-2-2-------------
D-------------------------5-3-3h5-----
A-------------------------------------
E-------------------------------------

(Pré-Refrão)

(Refrão) 4x


Enviada por tinho
Correção por equipepegacifras
Nº de acordes: 6