Victor e Leo

Amigo Apaixonado

Victor e Leo

30.625 exibições
 e|----7-------7----5-----------5----3----------3-------5-----5---------------7-----5---------|
 B|----5-----5---5----------3----3--------3------1-------3-----3-----------5---5-------------3|
 G|----5---5-------5-------0-------0-----0------------------0-----0-------5-------5--------0--|
 D|----7-7--------------4-------------2--------------------------------7-----------------4----|
 A|----7------------5----------------3--------------3/5-------------5-7-------------5---------|
 E|-------------------------------------------------------------------------------------------|

 e|--5-----3-------3--------5-----------------------------------------------------------------|
 B|----3---------1---1--------3---------------------------------------------------------------|
 G|------0-----0------------------------------------------------------------------------------|
 D|----------2--------------------------------------------------------------------------------|
 A|--------3-----------3/5--------------------------------------------------------------------|
 E|-------------------------------------------------------------------------------------------|

G                                 D9/F# 
Pensando bem eu gosto mesmo de você 
                      Em 
Pensando bem quero dizer 
    Am                 D
Que amo ter te conhecido 
         G                        D9/F# 
Nada melhor que eu deixar você saber 
                        Em 
Pois é tão triste esconder  

Am                 D        e|-----3h2—--0h2p0----|
Um sentimento tão bonito    B|---------3-------3--| 
    			    G|--------------------|
			    D|-0-0----------------|


      C*                   G   *destaque o baixo tirando e colocando o dedo 2 do acorde 
Hoje mesmo vou te procurar 
 
Falar de mim 
         C 
Sei que nem chegou a imaginar 
        G                        D     e|----------5----|
Que eu pudesse te amar tanto assim     B|---------------|
                                       G|---4/5—--------|
(Refrão)
G               D          Em 
Sempre fui um grande amigo seu 
                C                 G 
Só que não sei mais se assim vai ser 
             D             C  
Sempre te contei segredos meus 
              D           G 
Estou apaixonado por você 
             D          Em 
Esse amor entrou no coração 
                C              G 
Agora diz o que é que a gente faz 
            D              C 
Pode dizer sim ou dizer não 
              D           G 
Ser só seu amigo não dá mais


(Solo)(G D Em C G D C D)

e|-----15------15-----15--15--15-17--17--15--15-15/14-14-14/12-12-12/10-10/7-7-7/5-5-5—5------------------|
B|13/15--15-15---15-15-----15--15--15—15---15--------------------------------------------7-8-10-12-12-9-9-|

e|------7----------7/10|--7/5-5/3-3|
B|-8-10---10-8---8-----|-----------|
G|-------------9-------|--7/5-5/4-4|

         G                        D
Nada melhor que eu deixar você saber 
                        Em 
Pois é tão triste esconder             
    Am                 D        e|--3/2-----------|
Um sentimento tão bonito        B|------3---3-----|
                                G|--------2----2--|

      C                   G 
Hoje mesmo vou te procurar Falar de mim 
         C 
Sei que nem chegou a imaginar 
        G                        D    e|---------5----|
Que eu pudesse te amar tanto assim    B|--------------|
                                      G|---4/5—-------|


(Obs.:) nessa parte a musica " cai "...

G              D          Em
Sempre fui um grande amigo seu 
                C                 G 
Só que não sei mais se assim vai ser 
             D             C  
Sempre te contei segredos meus 
              D          G       
Estou apaixonado por você 
             D          Em 
Esse amor entrou no coração 
                C              G
Agora diz o que é que a gente faz 
            D              C
Pode dizer sim ou dizer não 
              D               G
Ser só seu amigo ... não dá mais !!!!

(Obs.:) Agora que a musica " pesa " de novo com arpejos nas oitavas que começa após o grito ( Não dá mais!! )

os arpejos são os seguintes:

(Passagem) 
e|--5----5----5|  
B|-------------|   2X
G|7--7-7---7-7-|

G ( sempre fui um... )
e|-7--7---7|
B|--8--8---|
G|7--7--7--|

D ( grande amigo... )
e|-5--5---5|
B|--7--7---|
G|7--7--7--|

Em( seu...só que não sei... )
e|-3--3---3|
B|--5--5---|
G|5--5--5--|

C ( mas se assim vai ser )
e|-3--3---3|
B|--5--5---|
G|5--5--5--|

G ( sempre te con... )
e|-7--7---7|
B|--8--8---|
G|7--7--7--|

D ( tei segredos... )
e|-5--5---5|
B|--7--7---|
G|7--7--7--|

C ( ..meus..estou apaixo...)
e|-3--3---3|
B|--5--5---|
G|5--5--5--|

D ( ...nado por vocÊ... )
e|-5--5---5|
B|--7--7---|
G|7--7--7--|

G ( Esse amor en... )
e|-7--7---7|
B|--8--8---|
G|7--7--7--|

D ( ...trou no coração... )
e|-5--5---5|
B|--7--7---|
G|7--7--7--|

(Pausa)

Em
e|12-12-12|
B|12-12-12|
G|12-12-12|

C ( ..agora diz o que é que a gente faiz...)
e|-3--3---3|
B|--5--5---|
G|5--5--5--|

G ( Pode dizer... )
e|-7--7---7|
B|--8--8---|
G|7--7--7--|

D ( Sim ou dizer... )
e|--10---10---10|
B|---10---10----|
G|11--11---11---|

C ( Não...ser só seu a...)
e|-8--8---8|
B|--8--8---|
G|9--9--9--|

D 
G ( sol ) pra terminar....


Enviada por Sem inscrição
Nº de acordes: 6