James Bond - Trilha sonora
 
    e |-------------------------------------------------------|
    b |-------------------------------------------------------|
    g |-------------------------------------------------------| 
    d |-------------------------------------------------------|
    a |-------------------------------------------------------|
    e |-00---22--22--000--33--33--000--22--22--000--33--33----|
 
                            
 
    e |-------------------------------------------------------| 
    b |-------------------------------------------------------|
    g |-------------------------------------------------------|
    d |--3-2--------------------------------------------------|
    a |-------2-0-2---1-0-------------------------------------|
    e |---------------------0--2--0---------------------------|
 
---------------------------------------------------------------


Enviada por Sem inscrição
Nº de acordes: 0