Seether

Broken (Feat. Amy Lee)

Seether

10.917 exibições
Tom: Em

Afinação meio tom abaixo: (Eb Ab Db Gb Bb Eb)

Intro / Versos:
   Em         C9                
eb-2h3-----3--3------3------------------------------ 
Bb-----0------3----3---3-----3---------------------- 
Gb-------0----0--0---------0------------------------ 
Db-2---------------------2----------------------(3x) 
Ab------------3------------------------------------- 
Eb--------------------------------------------------
   D
eb-0h2-----3p2---0h2-------3p2----------------------
Bb-----3-------3-----3---3-----3--------------------
Gb-------2-------------2---------0------------------
Db-0-------------0----------------------------------
Ab--------------------------------------------------
Eb--------------------------------------------------

Verso 1:
Em       C9
   I wanted you to know
Em         C9
   That I love the way you laugh
Em       C9
   I wanna hold you high
      D
And steal your pain away

Verso 2:
Em         C9
   I keep your photograph
Em            C9
   And I know it serves me well
Em       C9
   I wanna hold you high
      D
And steal your pain

Refrão:
             C Em
´Cause I´m broken
  D       C   Em
When I´m lonesome
    D        C    Em
And I don´t feel right
  D          C   Em
When you´re gone away

Final Refrão: (Mesmo dedilhado usado no verso)
Em  C9             Em  C9
       You´ve gone away
                Em    C9         D
You don´t feel me ...here ...anymore

Verso 3:
Em         C9
   The worst is over now
Em         C9
   And we can breathe again
Em       C9
   I wanna hold you high
      D
And steal my pain away

Verso 4:
Em             C9
   There´s so much left to learn
Em        C9
   And no one left to fight
Em       C9
   I wanna hold you high
      D
And steal your pain

Refrão:
             C Em
´Cause I´m broken
  D      C Em
When I´m open
    D        C    Em
And I don´t feel like
D      C     Em
I´m strong enough

  D          C Em
´Cause I´m broken
  D       C   Em
When I´m lonesome
    D        C    Em
And I don´t feel right
  D          C   Em
When you´re gone away

Solo:

Base: Em C9    Em C9    Em C9   D

eb-----------------------------0--------------------
Bb---------------------------0---0------------------
Gb--------------------------------------------------
Db-------0-2--5-4--2p0-4-5-2------------------------
Ab---0-2--------------------------------------------
Eb-0------------------------------------------------

eb----------------------------0---------------------
Bb--------------------------3--3--------------------
Gb------------------------2------2-2h4-4------------
Db-------0-2--5-4—4p0-4-5---------------------------
Ab---0-2--------------------------------------------
Eb-0------------------------------------------------


Refrão:
             C Em
´Cause I´m broken
  D      C Em
When I´m open
    D        C    Em
And I don´t feel like
D      C     Em
I´m strong enough

  D          C Em
´Cause I´m broken
  D       C   Em
When I´m lonesome
    D        C    Em
And I don´t feel right
  D          C   Em    
When you´re gone away

Intervalo:
(C Em   D) 4x

Refrão:
             C Em
´Cause I´m broken
  D       C   Em
When I´m lonesome
    D        C    Em
And I don´t feel right
  D          C    Em
When you´re gone

Final Refrão:
Em  C9             Em  C9
       You´ve gone away
                Em    C9         D
You don´t feel me ...here ...anymore


Enviada por Sem inscrição
Correção por equipepegacifras
Nº de acordes: 9