Scorpions

Send Me An Angel

Scorpions

3.449 exibições
Tom: Am

{verse 1}
    Am      C          D5        Bm
The wise man said just walk this way
       G           D
To the dawn of the light
    Am       C     D5        Bm
The wind will blow into your face
       G              D
As the years pass you by
Am        C          D5     Bm
Hear this voice from deep inside
         G            D
It's the call of your heart
Am         C        D5        Bm
Close your eyes and your will find
        G              D
the passage out of the dark
{chorus}
G      D
Here I am
         Dm         Am
Will you send me an angel
G      D
Here I am
       Dm                  D5
In the land of the morning star
{verse 2}
    Am       C         D5        Bm
The wise man said just find your place
       G          D
In the eye of the storm
Am       C     D5        Bm
Seek the roses along the way.
        G          D
Just beware of the thorns
{chorus}
[powerchords in (with dist)]
G      D
Here I am
         Dm         Am
Will you send me an angel
G      D
Here I am
       Dm                  D5
In the land of the morning star
[powerchords out]
{solo}
{verse 3}
    Am       C         D5         Bm
The wise man said just raise your hand
          G           D
And reach out for the spell
Am       C           D5       Bm
Find the door to the promised land
        G            D
Just believe in yourself
Am        C          D5      Bm
Hear this voice from deep inside
         G            D
It's the call of your heart
Am         C        D5       Bm
Close your eyes and you will find
        G          D
the way out of the dark
[powerchords in (with dist.)]
{chorus & end}
G      D
Here I am
         Dm         Am
Will you send me an angel
G      D
Here I am
       Dm                  D5
In the land of the morning star
G      D
Here I am
         Dm         Am
Will you send me an angel
G      D
Here I am
       Dm                  D5
In the land of the morning star
------------------------------------------------------
 Am          C           D5          Bm
----0-----------0--------------------------------------------------
-------1-----------1--------3-----------3--------------------------
----------2-----------0--------2-----------4-----------------------
-2-----------------------0--------0-----------4--------------------
-------------3-----------------------2-----------------------------
-------------------------------------------------------------------
 Am          C           Dm7
----0-----------0------------------------------
-------1-----------1---------------------------
----------2-----------0--------5-----7-----5---
-2--------------------------7-----7-----7-----7
-------------3-----------5---------------------
-----------------------------------------------


Enviada por Sem inscrição
Nº de acordes: 8