Sem imagem

Meu Bem Não Me Quer

Renato & seus Blue Caps

1.719 exibições
Tom: E

Intro: 
Começa com a guitarra, e logo depois, entra a Bateria com o baixo.

Base: A

E|--------------------------------
b|----2----2----3----3----2-------
g|----2----2----2----2----2-------
d|----2----2----2----2----2-------
a|--------------------------------
E|--------------------------------

E|--------------------------------
b|----2----2----3----3----2-------
g|----2----2----2----2----2-------
d|----2----2----2----2----2-------
a|--------------------------------
E|--------------------------------

E|--------------------------------
b|--2--2--2--3--3--3--------------
g|--2--2--2--2--2--2--------------
d|--2--2--2--2--2--2--------------
a|--------------------------------
E|--------------------------------

E|--------------------------------
b|--2--2--2--3--3--3--------------
g|--2--2--2--2--2--2--------------
d|--2--2--2--2--2--2--------------
a|--------------------------------
E|--------------------------------

Durante a mússica, uma das 2 Guitarras fica fazendo um monte de negócios a mais, mas, é muito complicado, para tar postando aqui, e muito demorado também, uma hora, dessas, que eu tiver tempo, eu boto tudo esses negócios ai, para vocês blz!!




   A                     D
  briguei só pra' ver se ela
      E                A
  gostava um pouco de mim
                     D
  mas logo fiquei sabendo
            E             A
  que o que ela fez foi ruim
 
                      E                   A
                         meu bem não me quer
                      E                   A
                         meu bem não me quer
  REFRÃO                       D           E
                         sem amo_o_o_o_u_o_or
                                A
                         vou viver
 
       C                            A
  não sei porque eu fui nela acreditar
       C                                  A
  pensei que o seu amor não não fosse acabar
        E
  e assim
 
       A             D
  não sei se suportarei
     E             A
  viver sòzinho assim
                       D
  viver sem os beijos dela
       E              A
  bem sei que será o fim

                      E                   A
                         meu bem não me quer
                      E                   A
                         meu bem não me quer
  REFRÃO                       D           E
                         sem amo_o_o_o_u_o_or
                                A
                         vou viver
                         
                             A
                         vou viver
                             A
                         vou viver
                             A
                         vou viver
                             A
                         vou viver
                             A
                         vou viver


Enviada por Sem inscrição
Nº de acordes: 4