Tom: Am

Intro: 
  Am      F           C  G
e-----------------------------------------
B-----------------------------------------
G---------2-2--4-2-0----------------------
D-2-2---2-------------2--0-0-0------------
A-0-0-0---------------3-------------------
E---------1-1------------3-3-3------------

Riff Refrão 1:
    Am    F           C        G
e-----------------------------------------
B-----------------------------------------
G---------2-2--4-2-0----------------------
D-2-2---2-------------2-2---2--0-0-0------ (2x)
A-0-0-0---------------3-3-3---------------
E---------1-1------------------3-3-3------

    Am    F      C      G
e-----------------------------------------
B-----------------------------------------
G---------2-2-2--9-9-9--4-4-4-4-----------
D-2-2---2---------------------------------
A-0-0-0-----------------------------------
E---------1-1-1--8-8-8--3-3-3-3-----------

Riff Refrão 2:
    Am    F           C        G
e-----------------------------------------
B-----------------------------------------
G---------2-2--4-2-0----------------------
D-2-2---2-------------2-2---2--0-0-0------ (2x)
A-0-0-0---------------3-3-3---------------
E---------1-1------------------3-3-3------

    Am    F      C      G
e-----------------------------------------
B-----------------------------------------
G---------2-2-2--9-9-9--12-12-12-12-------
D-2-2---2---------------------------------
A-0-0-0-----------------------------------
E---------1-1-1--8-8-8--------------------

Refrão 1:
     Am        F            C
How long, how long will I slide
 G           Am F    C
Separate my side, I don´t
   G                  Am  F
I don´t believe it´s bad
  C
Slittin´ my throat
     G
It´s all I ever

Verso 2:
Am                               Em
  I heard your voice through a photograph
Am                           Em
  I thought it up it brought up the past
Am                       Em
  Once you know you can never go back
            G             A
I´ve gotta take it on the otherside

Verso 3:
Am                                Em
  Centuries are what it meant to me
Am                    Em
  A cemetery where I marry the sea
Am                              Em
  Stranger things could never change my mind
             G             A
I´ve got to take it on the otherside
 G             A
Take it on the otherside
 G         
Take it on
 A
Take it on

Refrão:
     Am        F            C
How long, how long will I slide
 G           Am F    C
Separate my side, I don´t
   G                  Am  F
I don´t believe it´s bad
  C
Slittin´ my throat
     G
It´s all I ever

Verso 3:
Am                     Em
  Pour my life into a paper cup
Am                             Em
  The ashtray´s full and I´m spillin´ my guts
Am                         Em
  She wants to know am I still a slut
             G             A
I´ve got to take it on the otherside

Verso 4:
Am                          Em
  Scarlet starlet and she´s in my bed
Am                    Em
  A candidate for my soul mate bled
Am                      Em
  Push the trigger and pull the thread
             G             A
I´ve got to take it on the otherside
 G             A
Take it on the otherside
 G         
Take it on
 A
Take it on

Refrão 3: (Acordes abertos)
     Am        F            C
How long, how long will I slide
 G           Am F    C
Separate my side, I don´t
   G                  Am  F
I don´t believe it´s bad
  C
Slittin´ my throat
     G
It´s all I ever

Solo: (B9  C7+) 2x

Ponte:
B9
  Turn me on, take me for a hard ride
C7+
  Burn me out, leave me on the otherside
B9
  I yell and tell it that it´s not my friend
                C7+        
I tear it down, I tear it down
                         Am  F  C  G
And then it´s born again

Refrão 3: (Acordes abertos)
     Am        F            C
How long, how long will I slide
 G           Am F    C
Separate my side, I don´t
   G                  Am  F
I don´t believe it´s bad
  C
Slittin´ my throat
     G
It´s all I ever

 Am  F      C       G                  Am  F
How long I don´t I don´t believe it´s bad
  C
Slit my throat
     G          Am
It´s all I ever


Enviada por Sem inscrição
Correção por equipepegacifras
Nº de acordes: 8