RBD

Te Daria Todo

RBD

47 exibições
Tom: D

Intro: D9/F#  G  C9  Em
       D9/F#  G  C9

E|--5---5-5/7--7-8-10-10-----|-5---5-5/7--7-8-10---|
B|----3------------------8-8-|---3---------------8-|
G|---------------------------|---------------------|
D|---------------------------|---------------------|
A|---------------------------|---------------------|
E|---------------------------|---------------------|


D9/F# G                       C9  Em
     En tu silencio oigo mi voz
D9/F#  G                   C9  Em
     Pidiendo a gritos amor
D9/F#      G                C9    Em
     Maldito miedo que al igual que a ti
            D9
Me ha dado a la razón
C                      Bm
Gustosa te daría, mi amor, la vida entera
C                  D                  G
Gustosa aceptaría vivir y morir a tu lado

Refrão:
G         D
Te daría todo
       Em                         C
si el miedo no insistiera en que te vas a ir
G          D
Te daría todo
      Em                       C          D9
si mi alma que ahora es tuya se pudiera ir contigo

( G  C9 ) (3x)

D9/F#   G                C9           Em
   Sueño a tu lado, todo es tranquilidad
D9/F#   G                C9     Em
   Pero de pronto llega esa oscuridad
           D4  D  Em
Que me despierta
                 D4 D
Y ensombrece mi mundo
C                    Bm
Gustosa te daría, mi amor, la vida entera
C                   D                 G
Gustosa aceptaría vivir y morir a tu lado

Refrão:
G         D
Te daría todo
       Em                          C
Si el miedo no insistiera en que te vas a ir
G          D
Te daría todo
       Em                    C           D9            G
Si mi alma que ahora es tuya se pudiera ir contigo

G                     D9/F#
Guardo un rayo de esperanza
         C9                     C
En el corazón que se revela la razón
Am                     D
Y cuando ganan mis sentidos
Am D9/B            D
  Y este amor infinito
            C9
Me inunda de ti

            G
Me inunda de ti

( Am  D9/B  C9  D  G )

Refrão:

Te daría todo
         Em                         C
Si el miedo no insistiera en que te vas a ir
G          D
Te daría todo
        Em                     C          D        G
Si mi alma que ahora es tuya se pudiera ir contigo

E|--5---5-5/7--7-8-10-10-----|-5---5-5/7--7-8-10---|
B|----3------------------8-8-|---3---------------8-|
G|---------------------------|---------------------|
D|---------------------------|---------------------|
A|---------------------------|---------------------|
E|---------------------------|---------------------|


Enviada por maau
Nº de acordes: 11