Raimundos

Selim

Raimundos

1.401 exibições
               G           C           G           C           D             G
E|----------------|-----------------------|-------------------5-------------------|
B|----------------|-7/8-8-8-7-8-8-7-5-5---|-7/8-8-8-7-8-8-7-8---7-----------------|
G|--3/4-4-5-4-----|---------------------7-|-----------------------7-7-7-5-4-------|
D|------------5-5-|-----------------------|---------------------------------5-5/0-|
A|----------------|-----------------------|---------------------------------------|
E|----------------|-----------------------|---------------------------------------|


           G        C            G
Eu queria ser o banquinho da bicicleta
      C                   G
Pra ficar bem no meio das pernas
    Bm               D
E sentir o seu anus suar
           G        C             G
Eu queria ser a calcinha daquela menina
    C                      D
Pra ficar bem perto da vagina
             C       G
E as vezes até me molhar
G    A   B  C                             G
Mas eu  não sei o que se passa nesta cabecinha
                      D
É claro que era da da minha
                 G
Você não pode duvidar
G   A   B    C
fi-ca   qui-eto
                    G
Nao me deixe envergonhado
                     D
Pois se eu ficar excitado
                     G
A minha calca vai estourar
Solo:

                G           C           G           C           G           Bm          D
E|----------------|-----------------------|-------------5---------|----------------------------|
B|----------------|-7/8-8-8-7-8-8-7-5-5---|-7/8-8-8-7-8---8-7-5---|----------------------------|
G|--3/4-4-5-4/7-7-|---------------------7-|---------------------7-|-3/4-4-4-5-4-5-4-5-7-7-7-7-|
D|----------------|-----------------------|-----------------------|----------------------------|
A|----------------|-----------------------|-----------------------|----------------------------|
E|----------------|-----------------------|-----------------------|----------------------------|


               G           C           G           C           D          G
E|----------------|-----------------------|-------------------5-5-7-8-10-7-7/0-|
B|----------------|-7/8-8-8-7-8-8-7-5-5---|-7/8-8-8-7-8-8-7-8------------------|
G|--3/4-4-5-4-----|---------------------7-|------------------------------------|
D|------------5-5-|-----------------------|------------------------------------|
A|----------------|-----------------------|------------------------------------|
E|----------------|-----------------------|------------------------------------|


Enviada por Sem inscrição
Correção por Kmcg
Nº de acordes: 6