Pink Floyd

Wish You Were Here

Pink Floyd

24.445 exibições
Tom: G

Intro: 

(1ª Guitarra)

     Acorde algumas vezes   Acorde algumas vezes
         ^V^                 ^V^
e---------------------3-------------------3---|
B---------------------3-------------------3---|
G---------------------0-------0-----------0---|
D-------------0--2----0----2-----2--------0---|  (2x)            
A------0h2------------2-------------------2---|     
E---3-----------------x-------------------3---|      

            Acorde algumas vezes            Acorde algumas vezes
                     ^V^                              ^V^
e---------------------3--------------------------------3---|
B---------------------3--------------------------------3---|
G---------------------0--------------------------------2---|
D-------------0--2----0------2-----0-------------------2---|   (2x)
A------0h2------------2------------------2-------0-----0---|
E---3-----------------x--------------------------------0---|


Acorde algumas vezes
   ^V^
e---3---|    
B---3---|
G---0---|
D---0---|      
A---2---|
E---3---|


Solo: ( 2ª gruitarra )

e----------------------------------------------------------|
B----------3---5--------3----------------------------------|
G-----2/4-----------4--------4----2---0--------------------|     
D------------------------------------------0---------0---0-|
A-----------------------------------------------1/2--------|
E----------------------------------------------------------|

e----3/5/3-------------------------------------------------|
B----3/5/3----3/5/3----3----3/5/3--------------------------| 
G-------------2/4/2----0----2/4/2---2p0----2/4-------------|
D------------------------------------------3/5-------------|
A----------------------------------------------------------|
E----------------------------------------------------------|

e---------------------------------------------------------------------|
B----------3--------5----5b---5----3--------------3-----5-------------|
G----2/4-------4----------------------2----4b----------------4b-----2-|
D---------------------------------------------------------------------|
A---------------------------------------------------------------------|
E---------------------------------------------------------------------|

e---------------------------------------------------------------------|
B---------3---------5-----5b-----5------3-----------------------------|  
G----2/4------4-----------------------------2----4b-------------------| 
D---------------------------------------------------------------------|
A---------------------------------------------------------------------|
E---------------------------------------------------------------------|

C                         D
So, so you think you can tell 
             Am
Heaven from Hell
                 G
Blue Skies from pain
                      D
Can you tell a green field
                   C
From a cold steel rail 
                Am
A smile from a veil
                      G
So you think you can tell
                      C
Did they get you to trade
                  D
Your heroes for ghosts
               Am
Hot Ashes for trees
                G
Hot air for a cool breeze
                   D
Cold comfort for change
            C
Did you exchange?
                      Am
A walk on part in the war
                      G
For a lead role in a cage


Solo 2:  

( Intro: 1ª Guitarra )


( 2ª Guitarra ) 

e--------10-10-------10-10---12-10-10------|
B---10/12-------10/12-----------------12---|
G------------------------------------------|
D------------------------------------------|
A------------------------------------------|
E------------------------------------------|

e---------10-10-10-12-10------------------------|
B---10/12--------------------12p10p8------------|
G-----------------------------------7-7---9-7---|
D---------------------------------------9-------|
A-----------------------------------------------|
E-----------------------------------------------|

e----------------10-10-10-----------12------------|
B-----8-10-10/12---------10--12/14----14p12p10----|
G---9---------------------------------------------|
D-------------------------------------------------|
A-------------------------------------------------|
E-------------------------------------------------|
                                                    
e---------10---------------------------12---------------|
B---10/12----12p10p8-10-12-12-8--12/14-----14p12p10--8--|
G-------------------------------------------------------|
D-------------------------------------------------------|
A-------------------------------------------------------|
E-------------------------------------------------------|

C                                D 
How I wish, how I wish you were here
            Am                                G
We\\\'re just two lost souls swimming in a fish bowl
             D
Year after year.
                C
Running over the same old ground.
                                  Am
What have we found the same old fears
                G
Wish you were here...


Enviada por Sem inscrição
Correção por equipepegacifras
Nº de acordes: 4