Panic At The Disco

Tonight, Tonight

Panic At The Disco

412 exibições
Afinação: E

Repete várias vezes:
                                                                                
e|-------------------|-------------------|
B|----0-----0-----0--|----0-----0-----0--|
G|------0-----0------|------0-----0------|
D|-------------------|-------------------|
A|--3-----3-----3----|--5-----5-----5----|
E|-------------------|-------------------|

e|-------------------|----------------------|
B|----0-----0-----0--|-----0------0------0--|
G|------0-----0------|-------0------0-------|
D|-------------------|----------------------|
A|--7-----7-----7----|--10-----10-----10----|
E|-------------------|----------------------|


The rythm part:

G Em G Em

C9 G D C9 G D C9 G D G


  time is never time at all

  you can never ever leave without leaving a piece of youth

  and our lives are forever changed we will never be the same

  the more you change the less you feel
                                         G D Em
  believe, believe in me, believe (believe)
                                                    G D Em
  that life can change, that you're not stuck in vain
                                         C9 G D C9 G D
  we're not the same, we're different tonight
C9 G D G
  tonight, tonight, so bright
C9 G D C9 G D G Em
  tonight, tonight
G
  and you know you're never sure
                                Em
  but you're sure you could be right

  if you held yourself up to the light
G
  and the embers never fade in your city by the lake
Em
  the place where you were born
                                    G D Em
  believe, believe in me, believe (believe)
                             G D Em
  in the resolute urgency of now
                                          C9 G D C9 G D
  and if you believe there's not a chance tonight
  C9 G D G         C9
  tonight, tonight, so bright
  C9 G D G D Em
  tonight, tonight
  G              C9        G        D Em
  we'll crucify the insincere tonight (tonight)
  G                        C9             G        D Em
  we'll make things right, we'll feel it all tonight (tonight)
  G                   C9     G        D Em
  we'll find a way to offer up the night tonight 
  G                   C9     G        D Em
  the indescribable moments of your life tonight
  G                 C9    G        D Em
  the impossible is possible tonight (tonight)
  G                  C9           
  believe in me as i believe in you, tonight
                                    G D Em
  tonight, tonight, tonight, tonight...


Acordes:
                                                                                
e|--3--0---1-----x----
B|--3--0---1-----3----
G|--0--0---0-----2----
D|--0--2---2-----0----
A|--2--2---3-----x----
E|--3--x---x-----x----
    G  Em  C9 D


OBS: É um cover que o Panic! At The Disco faz nos seus shows, a gravação original é do Smashing Pumpkins


Enviada por Sem inscrição
Nº de acordes: 5