Panic At The Disco

Pas De Cheval

Panic At The Disco

98 exibições
Tom: Em
Intro: 
e|--------------0------
b|----0---------0------
g|-0h1--0h1-(0)-1------
D|--------------2------
A|--------------2------
E|--------------0------

Estrofe:

Em                   B
Oh, little did she know
                A
Couldn't let me go
          E
Already a part of her
E              B
So, often do I need
              A
People in between
                      E
That just can't get a hold of it

Pré Refrão:
                      B        
So we'll just sing it for them

B Bb A
Ahhh 
                         E
Yeah, we'll just sing it for them
(Just can't get a hold of it)

E                      B
So we'll just sing it for them
B Bb A
Ahhh
                          B
Yeah, we'll just sing it

Refrão:
          E                                 A
It's the greatest thing that's yet to have happened
D       A       E
Imagine knowing me
E                                  A
It's the greatest thing you'd ever imagine
           D          A            E
But you'll never know until you're there
           D          /            E
No, you'll never know until you're there

Estrofe:

E                          B
Slow, leave walking to the world
                 A
Give your feet a chance
                    E
They'll do all the thinking
E                      B
Toast, high until they find
              A
Less pathetic wine
                 E
Until they get a better blend

Pré Refrão:

E                       B
And we'll just drink it for them
B Bb A
Ahhh 
                         E
Yeah we'll just drink it for them
(Until they get a better plan)
E                      B        B Bb A
So we'll just drink it for them
A                      B
Yeah we'll just drink it

Refrão:

          E                                 A
It's the greatest thing that's yet to have happened
D       A       E
Imagine knowing me
E                                  A
It's the greatest thing you'd ever imagine
           D          A            E
But you'll never know until you're there
           D          /            E
No, you'll never know until you're there

(SOLO)
1t                                         2t
-----------------------------------------------------------------
------------~----4h5-4-4-----------------------------------------
--------6--4--4-6-----6-4~~--7b9b7-6--4-----7-6-4---4------------
-------6------------------------------------------7---7-6--------
-7--7-9---------------------------------------------------9-7~~~~
-----------------------------------------------------------------
1t                                         
-----------------------------------------------------------------
------------~----4h5-4-4-----------------------------------------
--------6--4--4-6-----6-4~~--7b9b7-6--4--------------------------
-------6---------------------------------------------------------
-7--7-9----------------------------------------------------------
-----------------------------------------------------------------

          E                                 A
It's the greatest thing that's yet to have happened
D       A       E
Imagine knowing me
E                                  A
It's the greatest thing you'd ever imagine
           D          A            E
But you'll never know until you're there
           D          A            E
But you'll never know until you're there
           D          A            E
But you'll never know until you're theeeere


Enviada por keko
Nº de acordes: 6