Sem imagem

Cello Song

Nick Drake

209 exibições
Capotraste on 1st fret (actual key Bb major)
Chords:
D7:    xx0212
A9: x02200
D:     xx0232
G/b:   x2003x

Intro: ^= a downstroke with the first finger. This means stiking
down with the first finger while picking the open D string with 
the thumb. Pretty tricky, but that's the only way I could manage
to play those rapid-fire notes at the 2nd fret.

  D7
e|--------------------------------|--------------------------------|
B|------------^-----------^-------|------------^-----------^-------|
G|----0h2---2-2---0h2---2-2---2---|----0h2---2-2---0h2---2-2-------|
D|0---0---0---0---0---0---0---0---|0---0---0---0---0---0---0---0---|
A|--------------------------------|--------------------------------|
E|--------------------------------|--------------------------------|

e|--------------------------------|--------------------------------|
B|----0h1---------0h1-------1-----|----0h1---------0h1-------1-----|
G|----------2-----------0h2-----2-|----------2-----------0h2-----2-|
D|0---0---0---0---0---0---0---0---|0---0---0---0---0---0---0---0---|
A|--------------------------------|--------------------------------|
E|--------------------------------|--------------------------------|

e|----0h2-------------------------|----0h2-------------------------|
B|----------1-----0h1-------1-----|----------1-----0h1-------1-----|
G|----------------------0h2-----2-|----------------------0h2-------|
D|0---0---0---0---0---0---0---0---|0---0---0---0---0---0---0---0---|
A|--------------------------------|--------------------------------|
E|--------------------------------|--------------------------------|

e|5-----0h2-----------------------|5-----0h2-----------------------|
B|----------1---0h1---------1-----|----------1---0h1---------1-----|
G|------------------2---0h2-------|------------------2---0h2-------|
D|0---0---0---0---0---0---0---0---|0---0---0---0---0---0---0---0---|
A|--------------------------------|--------------------------------|
E|--------------------------------|--------------------------------|

Play both bars of the A9 pick, then play bar 1 twice, 
then both bars again.
  A9
e|----------------0---------------|5-------------0-----------------|
B|----------0---------------0-----|----------0-------0-------0-----|
G|------2---------------2---------|------2---------------2-------2-|
D|----2-------2-------2-------2---|----2-------2-------2-------2---|Thumb
A|0-------0-------0-------0-------|0-------0-------0-------0-------|Thumb
E|--------------------------------|--------------------------------|
                                                           Strange

e|----------------0---------------|----------------0---------5-----|
B|----------0---------------0-----|----------0---------------------|
G|------2---------------2---------|------2---------------2---------|
D|----2-------2-------2-------2---|----2-------2-------2-------2---|
A|0-------0-------0-------0-------|0-------0-------0-------0-------|
E|--------------------------------|--------------------------------|
  face                    with..   eyes

  D                                
e|----------2-----5---------2-----|
B|------3---------------3---------|
G|----2-------2-------2-------2---|
D|0-------0-------0-------0-------|
A|--------------------------------|
E|--------------------------------|                 
                  so    pale and  

  A9
e|----------------0---------------|5-------------0-----------------|
B|----------0---------------0-----|----------0-------0-------0-----|
G|------2---------------2---------|------2---------------2-------2-|
D|----2-------2-------2-------2---|----2-------2-------2-------2---|
A|0-------0-------0-------0-------|0-------0-------0-------0-------|
E|--------------------------------|--------------------------------|
   sensual

A9                    D                A9
Underneath you know well   you have nothing to fear
D              A9       D     A9
 For the dreams  that came  to and so young
D   A9
 Told of a life
  G/b
e|--------------------------------|--------------------------------|
B|----------2-----3---------3-----|--3-------3-------2-------0-----|
G|------0---------------0-------0-|------0-------0-------0---------|
D|----0-------0-------0-------0---|----0-------0-------0-------0---|
A|2-------2-------2-------2-------|2-------2-------2-------2-------|
E|--------------------------------|--------------------------------|
                  when............................................

A9
 spring has sprung



Enviada por Sem inscrição
Nº de acordes: 4