Nazareth

Love Hurts

Nazareth

4.158 exibições
Tom: G	
Intro: (G    F C G) 2x

      G            Em         C           D
Love hurts, love scars, love wounds, and mars,
C  G            Em          C       D
Any heart, not tough, or strong, enough,
   C           B                  Em
To take a lotta pain, take a lotta pain,
               C                D    C
Love is like a cloud, holds a lot of rain.
      G     F    C          G
Love hurts, ooh, ooh, love hurts.

    G       Em        C    D
I`m young, I know, but even so,
  C     G        Em     C                   D
I know a thing, or two, I`ve learned, from you.
  C               B    B7               Em
I really learned a lot, really learned a lot,
B              C                  D            C
Love is like a flame, it burns you when it`s hot.
     G      F    C          G
Love hurts, ooh, ooh, love hurts.

Ponte:
B    Em    B        Em         B       Em      B     Em
Some fools speak of happiness, blissfulness, togetherness.
A                                 A7                 D
Some fools fool themselves I guess, they`re not foolin` me.

  C            G       B            Em
I know it isn`t true, I know it isn`t true,
B              C            D           C
Love is just a lie, made to make you blue.
     G     F   C        G
Love hurts, ooh, ooh, love hurts.
F   C        G
Ooh, ooh, love hurts.

Solo:

  G       Em                       C
e|------------------7--------7-----------7------------------|
B|--8-----10--8---------8---------10------------------------|
G|----------------------------------------------------------|
D|----------------------------------------------------------|
A|----------------------------------------------------------|
E|----------------------------------------------------------|

   G       Em                     C
e|------------------7---------------------------------------|
B|--8-----10--8---------8-----10-10----7h10-----------------|
G|----------------------------------------------------------|
D|----------------------------------------------------------|
A|----------------------------------------------------------|
E|----------------------------------------------------------|

                G       B            Em
I know it isn`t true, I know it isn`t true,
B              C            D           C
Love is just a lie, made to make you blue.
     G     F   C        G
Love hurts, ooh, ooh, love hurts.
F   C        G
Ooh, ooh, love hurts.
F   C
Ooh, ooh...


Enviada por Sem inscrição
Correção por equipepegacifras
Nº de acordes: 10