Napoleon Coste

Study 1 In C Major

Napoleon Coste

72 exibições
"Study 1" in C Major by Napoleon Coste (1806-1883)


Play AABB. 16 Bars in total. 4 chords and no Barre Chords. 2/4 Time Signature.

Part A

[1]
E|-----------------|-----------------|---------0-------|---------1-------|
B|---------1-------|---------3-------|-----------------|-----------------|
G|-----------------|-----------------|--0=======-------|--2======--------|
D|-----------------|--3=======-------|-----------------|-----------------|
A|--3=======-------|-----------------|-----------------|-----------------|
E|-----------------|-----------------|-----------------|-----------------|  
  
R   p      i          p      i          p      i          p      i
L   3      1          3      4                            2      1


[5]
E|---------0-------|-----------------|-----------------|----------------||
B|-----------------|---------3-------|---------1-------|----------------||
G|--0=======-------|-----------------|-----------------|---------------*||
D|-----------------|--3=======-------|--2=======-------|---------------*||
A|-----------------|-----------------|-----------------|--3=======------||
E|-----------------|-----------------|-----------------|----------------||

R   p      i          p      i          p      i          p      i
L                     3      4          2      1          3

Part B

[9]
E|-----------------|-----------------|-----------------|---------0-------|
B|---------0-------|---------1-------|---------3-------|-----------------|
G|-----------------|-----------------|-----------------|--0=======-------|
D|--0=======-------|--2=======-------|--3=======-------|-----------------|
A|-----------------|-----------------|-----------------|-----------------|
E|-----------------|-----------------|-----------------|-----------------|

R   p      i          p      i          p      i          p      i
L                     2      1          3      4  


[13]
E|-----------------|-----------------|-----------------|----------------||
B|---------1-------|---------3-------|---------0-------|--1=======------||
G|-----------------|-----------------|-----------------|---------------*||
D|--2=======-------|--3=======-------|--0=======-------|--2=======-----*||
A|-----------------|-----------------|-----------------|----------------||
E|-----------------|-----------------|-----------------|----------------||

R   p      i          p      i          p      i          p,i
L   2      1          3      4                            1,2


Enviada por Sem inscrição
Nº de acordes: 2