Naiara Azevedo

Tantos Planos

Naiara Azevedo

21 exibições
Tom: Bbm

Intro: Bbm Fm Eb9

E|----------------------------------------------------|
B|--9--9--9--9/11--11-11\9----/9-9-9-9-9-9p8-8\6------|
G|-----------------------------------------------6-6--|
D|-10-10-10-10/12--12-12\10---------------------------|
A|----------------------------------------------------|
E|----------------------------------------------------|

E|-------6-6/8-6---6-6/8-6----------------------------|
B|-----9---------9---------9---9--8-9-9/11------------|
G|-6/8------------------------------------------------|
D|----------------------------------------------------|
A|----------------------------------------------------|
E|----------------------------------------------------|

E|----------------------------------------------------|
B|-9--8-9-9/11----------------------------------------|
G|----------------------------------------------------|
D|----------------------------------------------------|
A|----------------------------------------------------|
E|----------------------------------------------------|

G#
Como é que ainda tem coragem de falar de amor
Fm
Depois de tudo que você me aprontou
     C#9
Como é cara de pau
                            Eb9
De falar que somo um lindo casal

Bbm
O que vou falar para os seus pais
Fm
Que não somos compatíveis

Somos desiguais
Bbm
Todo mundo acreditou na agente
                Eb9
Podia ser diferente


Do que adiantou
Bbm
A gente fazer tantos planos
             Fm
Se a sua sujeira
                                Eb9
Você sempre esconde embaixo do pano
                   Bbm
A nossa vida se resume

Num grande engano
                   Fm
Só pode ser uma maquina sem coração
                Eb9
Não é um ser humano


Enviada por Sem inscrição
Nº de acordes: 5