Tom: C#m

Intro: C#m  B  F#m  G#

Solo Intro: 

Parte 1 de 3


E|-----------------------------------------------------
B|-5-5-4-5-5/7-5-4-5----5-5-4-5-5/7-5-4-5-5-4-4--------
G|-------------------6--------------------------6-6----
D|-----------------------------------------------------
A|-----------------------------------------------------
E|-----------------------------------------------------


Parte 2 de 3


E|-----------------------------------------------------
B|-------4-5-5/7-7-5-5/7-7-5-5/7-5--5-7-7/9--5-4-------
G|-4-4-6-----------------------------------------------
D|-----------------------------------------------------
A|-----------------------------------------------------
E|-----------------------------------------------------


Parte 3 de 3


E|-4/9-9--9/12-12--------------------------------------
B|-4/9-9--9/14-14--------------------------------------
G|-----------------------------------------------------
D|-----------------------------------------------------
A|-----------------------------------------------------
E|-----------------------------------------------------


Primeira Parte:

   C#m
Bonito
       A9
Que bonito, hein?
     E
Que cena mais linda
                          B
Será que eu estou atrapalhando o casalzinho aí

     C#m
Que lixo
                A9
Cê tá de brincadeira
   E                                    B
Então é aqui o seu futebol toda quarta-feira

Segunda Parte:

   A9
E por acaso esse motel
                   B
É o mesmo que me trouxe na lua de mel
                 C#m
É o mesmo que você me prometeu o céu
              A9
E agora me tirou o chão

E não precisa se vestir
                  B
Eu já vi tudo que eu tinha que ver aqui
       A9    E/G#
Que decepção
F#m                    B  A/C#  B/D#
Um a zero pra minha intuição

Refrão:

E
  Não sei se dou na cara dela ou bato em você
B
  Mas eu não vim atrapalhar sua noite de prazer
F#m                                    E/G#  A9
    E pra ajudar pagar a dama que lhe sa_tisfaz
                   E
Toma aqui uns 50 reais


Não sei se dou na cara dela ou bato em você
B
  Mas eu não vim atrapalhar sua noite de prazer
F#m                                    E/G#  A9
    E pra ajudar pagar a dama que lhe sa_tisfaz
        B
Toma aqui uns 50 reais

Base Solo: C#m  B  F#m  G#

Solo:

Parte 1 de 3


E|-----------------------------------------------------
B|-5-5-4-5-5/7-5-4-5----5-5-4-5-5/7-5-4-5-5-4-4--------
G|-------------------6--------------------------6-6----
D|-----------------------------------------------------
A|-----------------------------------------------------
E|-----------------------------------------------------


Parte 2 de 3


E|-----------------------------------------------------
B|-------4-5-5/7-7-5-5/7-7-5-5/7-5--5-7-7/9--5-4-------
G|-4-4-6-----------------------------------------------
D|-----------------------------------------------------
A|-----------------------------------------------------
E|-----------------------------------------------------


Parte 3 de 3


E|-4/9-9-----------------------------------------------
B|-4/9-9--5-5-5-5-5-7-5--------------------------------
G|-----------------------------------------------------
D|-----------------------------------------------------
A|-----------------------------------------------------
E|-----------------------------------------------------


Segunda Parte:

   A9
E por acaso esse motel
                   B
É o mesmo que me trouxe na lua de mel
                 C#m
É o mesmo que você me prometeu o céu
              A9
E agora me tirou o chão

E não precisa se vestir
                  B
Eu já vi tudo que eu tinha que ver aqui
       A9    E/G#
Que decepção
F#m                    B  A/C#  B/D#
Um a zero pra minha intuição

Refrão:

E
  Não sei se dou na cara dela ou bato em você
B
  Mas eu não vim atrapalhar sua noite de prazer
F#m                                    E/G#  A9
    E pra ajudar pagar a dama que lhe sa_tisfaz
                   E
Toma aqui uns 50 reais


Não sei se dou na cara dela ou bato em você
B
  Mas eu não vim atrapalhar sua noite de prazer
F#m                                    E/G#  A9
    E pra ajudar pagar a dama que lhe sa_tisfaz
        B          E
Toma aqui uns 50 reais

            B
Ai, ai, ai, ai
            F#m
Ai, ai, ai, ai

                                   E/G#  A9
E pra ajudar pagar a dama que lhe sa_tisfaz
        B          E
Toma aqui uns 50 reais


Enviada por Sem inscrição
Nº de acordes: 9