Sem imagem

Amateur

Nada Surf

127 exibições
Som um pouco abafado na introdução (ouça a música para pegar o ritmo)

Introdução(parte 1) e Verso
e|------------------------------------------------------
B|------------------------------------------------------
G|-----12--12-/--11--11-/--9--9--9----------------------  2x
D|-----12--12-/--11--11-/--9--9--9----11--11--11-------- 
A|-----10--12-/--9--9---/--7--7--7----11--11--11--------
E|------------------------------------9---9---9---------

"You made me feel like I'm ok..."

Introdução(parte 2) e Refrão
                          *                                *
e|--------------------------------------------------------------------    *slides só na "introdução"
B|--------------------------------------------------------------------
G|----9--9---7--7----5--5--/--9--9-----9--9---7--7----5--5--/--9--9---
D|----9--9---7--7----5--5--/--9--9-----9--9---7--7----5--5--/--9--9---
A|----7--7---5--5----3--3--/--7--7-----7--7---5--5----3--3--/--7--7---
E|--------------------------------------------------------------------

"What about self-pitty..."

Outro

e|------------------------------------------------------
B|------------------------------------------------------
G|-----12--12---11--11---9--9--9------------------------  
D|-----12--12---11--11---9--9--9----11--11--11---------- 
A|-----10--12---9--9-----7--7--7----11--11--11----------
E|-----------------------------------9---9---9----------


Enviada por Sem inscrição
Nº de acordes: 0