Metallica

Nothing Else Matters

Metallica

27.827 exibições
Intro: 
Em Dedilhado
Solo 1
                         Am                      C         D7      Em
e|-77-7-0-7-8-7-5-7-5-3|-0--0----0-0h2-0--------------0-------0----0-----0----|
B|---------------------|-1---1----------1------------1-1-----3-3---0----0-0---|
G|---------------------|-2----2----------2----------0---0---0---0--0---0---0--|
D|---------------------|-2-----2----------2--2-2-2-2-------4-------2----------|
A|---------------------|-0-0----0----------0-0-2-3---------5-------2----------|
E|---------------------|-------------------------------------------0-0-------0|

Em (Dedilhado 4x ida e volta)  

  Em       D7    C7           Em      D7     C7    G     B7     Em
e|------7------5------3-|  |-------7------5------3----3------2--0-|
B|------8------7------5-|  |-------8------7------5----3------0--0-|
G|-----9------5------3--|  |------9------5------3----4------2---0-|
D|-9--9----7-7----5-5---|2X|--9--9----7-7----5-5----5----1-1----2-|
A|-7-7-----5------3-----|  |--7-7-----5------3-----5-----2------2-|
E|----------------------|  |-----------------------3------------0-|

Em

Em Dedilhado . 
E|-3-2 Ai entra na música

Em                 D      C 
So close no matter how far 
Em                    D             C  
Couldn't be much more from the heart 
Em               D         C 
Forever trusting who we are 
G   B7            Em 
And nothing else matters 
 
Em             D            C 
Never opened myself this way 
Em                       D      C 
Life is ours, we live it our way 
Em                      D       C 
All these words I don't just say 
G   B7           Em 
And nothing else matters 
 
Em                 D        C 
Trust I seek and I find in you 
Em               D            C 
Every day for us something new 
Em              D             C 
Open mind for a different view 
G   B7           Em 
And nothing else matters  
 
 {Chorus} 
C A D                          C 
     Never cared for what they do 
  A D                          C 
     Never cared for what they know 
  A D      Em 
     But I know 
 
Em                 D      C 
So close no matter how far 
Em                    D             C  
Couldn't be much more from the heart 
Em               D         C 
Forever trusting who we are 
G   B7           Em 
And nothing else matters 

 {Chorus} 
C A D                          C 
     Never cared for what they do 
  A D                          C 
     Never cared for what they know 
  A D      Em 
     But I know 

solo 2  (2X)
   Em              Am                C          D          Em
e|-0---2---3---5----0---0---0----0-0-0--0---0-----2---2------0---0---0-------------|
B|--0---0---0---0----1---1---1-----------1---1-----3---3------0---0---0------------|
G|---0---0---0---0----2---2---2-----------0---0-----2---2------0---0---0-----------|  2X
D|------------------------------------------------0---0----------------------------| 
A|------------------0---0---0----0-2-3--3---3--------------------------------------|
E|-0---0---0---0---------------------------------------------0---0---0-------------|

E|-3-2-|

Em             D            C 
Never opened myself this way 
Em                       D      C 
Life is ours, we live it our way 
Em                      D       C 
All these words I don't just say 
G   B7           Em 
And nothing else matters 
 
Em                 D        C 
Trust I seek and I find in you 
Em               D            C 
Every day for us something new 
Em              D             C 
Open mind for a different view 
G   B7           Em 
And nothing else matters  
 
C A D                          C 
     Never cared for what they say 
  A D                          C 
     Never cared for what they play 
  A D                          C 
     Never cared for what they do 
  A D                          C 
     Never cared for what they know 
  A D      Em 
     But I know 

solo 3 Base= Em D C 2X = Em D C G B7   Em

e|--7-5-3-2-3-2-----3-5-3-7-12-7-12-7-12-7-5-3--5h7-5-3--2h3-2h3-5-3-2--------3--2-----------------|
B|-------------5-3-5----------------------------7h8-7-5-----0----------5-3-5---3--0---0-3h4-5-ou-Em|
G|------------------------------------------------------------------------------0--2---------------|
D|-------------------------------------------------------------------------------------------------|
A|-------------------------------------------------------------------------------------------------|
E|-------------------------------------------------------------------------------------------------|

Em (Dedilhado) 

Em                 D      C 
So close no matter how far 
Em                    D             C  
Couldn't be much more from the heart 
Em               D         C 
Forever trusting who we are 
G   B7            Em 
And nothing else matters 

Solo 1  (solo)              (base)  
e|-77-7-0-7-8-7-5-7-5-3-0|----0-----0-----0-----0---|
B|-----------------------|---0-0---0-0---0-0---0-0--|Umas 3x solo e vai sumindo
G|-----------------------|--0---0-0---0-0---0-0---0-|
D|-----------------------|--------------------------|
A|-----------------------|--------------------------|
E|-----------------------|-0-----0-----0-----0-----0|


Enviada por Sem inscrição
Nº de acordes: 9