Matheus e Kauan

Nosso Santo Bateu

Matheus e Kauan

634 exibições
Tom: C

Intro: F  G5  C  C/E  F

Parte 1 de 2

           F                  G5
E|--------------------------------------3---|
B|-3h5-3-1-----1-1-1--3h5-3-1-3-3-3-3-3---3-|
G|---------0h2-----0----------0-----------0-|
D|---------3------------------5-------------|
A|------------------------------------------|
E|------------------------------------------|


Parte 2 de 2

            C          C/E   F
E|------------------------------------------|
B|-3h5-3----3h5-5--5-3--1--------1----------|
G|-0-----5--0---0--0----0-0--0h2------------|
D|----------------------2----3--------------|
A|----------3------3------------------------|
E|------------------------------------------|


Primeira Parte:

C
  As vezes acho que devia 

Te dizer mais vezes
Em
   Que te amo e que te quero 

Mais que qualquer coisa
F                            C
  Por essa noite vem morar aqui


Tem gente que chega e muda 

Os planos da gente
Em
   E que faz a nossa vida 

Caminhar pra frente
F                           C
  Agora sim eu sei pra onde ir

Primeira Parte:
Parte 1 de 2

   C                Em
E|------------------------------------------|
B|-1---1---1---1----0---0---0---0-----------|
G|-0---0---0---0----0---0---0---0-----------|
D|---2---2---2---2----2---2---2---2---------|
A|-3----------------------------------------|
E|------------------0-----------------------|


Parte 2 de 2

   F                C
E|------------------------------------------|
B|-1---1---1---1----1---1---1---1-----------|
G|-2---2---2---2----0---0---0---0-----------|
D|---3---3---3---3----2---2---2---2---------|
A|------------------3-----------------------|
E|-1----------------------------------------|


Pré-Refrão:

F
  Dessa vida nada se leva
G
  E no fundo todo mundo espera
C
  Um amor que venha pra somar 
Dm      F     G
   Pra completar
Pré-Refrão:
Parte 1 de 2

   F                G
E|------------------3---3---3---3-----------|
B|-1---1---1---1----3---3---3---3-----------|
G|-2---2---2---2------0---0---0---0---------|
D|---3---3---3---3--------------------------|
A|------------------------------------------|
E|-1----------------3-----------------------|


Parte 2 de 2

   C               Dm      F       G
E|-----------------1---1---1---1---3---3---3|
B|-1---1---1---1---3---3---1---1---3---3---3|
G|-0---0---0---0-----2---2---2---2---0---0--|
D|---2---2---2---2-0------------------------|
A|-3----------------------------------------|
E|-------------------------1-------3--------|


Refrã:

            F
O nosso santo bateu
                 G
O amor da sua vida sou eu
                      C
E tudo que é meu hoje é seu
                  F
E o fim nem precisa rimar


O nosso santo bateu
                 G
O amor da sua vida sou eu
                      C
E tudo que é meu hoje é seu
                  F       G  C  F
E o fim nem precisa rimar

Pré-Refrão:

Dessa vida nada se leva
G
E no fundo todo mundo espera
C
Um amor que venha pra somar 
  Dm  F     G
Pra  completar

Refrão:

            F
O nosso santo bateu
                 G
O amor da sua vida sou eu
                      C
E tudo que é meu hoje é seu
                  F
E o fim nem precisa rimar


O nosso santo bateu
                 G
O amor da sua vida sou eu
                      C
E tudo que é meu hoje é seu
                  F       G  F  G  C
E o fim nem precisa rimar


Enviada por Sem inscrição
Nº de acordes: 7