Marilia Mendonça

Eu Sei De Cor

Marilia Mendonça

269 exibições
Tom: A

Intro: A9 (pausa) E  F#m  D (pausa)

Solo Intro: 

Parte 1


E|-----5--5-5\4-4\2-2p0-0-2-2/4-----------------------|
B|----------------------------------------------------|
G|-4/6----6-6\4-4\2-2p1-1-2-2/4-----------------------|
D|----------------------------------------------------|
A|----------------------------------------------------|
E|----------------------------------------------------|


Parte 2


E|--5\4-4\2-2p0---0-0h2-------------------------------|
B|--------------2-------2-----------------------------|
G|--6\4-4\2-2p1---1-1h2-------------------------------|
D|--------------2-------2-----------------------------|
A|----------------------------------------------------|
E|----------------------------------------------------|


Parte 3


E|---0-0h2p0---0-0h2p0--------------------------------|
B|-2---------2---------3\2--------7-------------------|
G|---1-1h2p1---1-1h2p1-----2--------------------------|
D|-2---------2---------4\2-0--4/7---------------------|
A|----------------------------------------------------|
E|----------------------------------------------------|


Primeira Parte:

A9
É
                      C#m
Já tá ficando chato, né
                         F#m
A encheção de saco, pois é
                               D
Prepara, que eu já tô me preparando
  (pausa)
Enquanto cê tá indo

          A9
Eu to voltando
                               E
E todo esse caminho eu sei de cor
      (pausa)
Se eu não me engano
                     F#m
Agora vai me deixar só
                              D
O segundo passo é não me atender
                        B7
O terceiro é se arrepender
                                 E
Se o que dói em mim doesse em você

Refrão:

 A9 (frase)
Deixa
                         E
Deixa mesmo de ser importante
                                F#m
Vai deixando a gente pra outra hora
                                 D
Vai tentar abrir a porta desse amor

Quando eu tiver jogado a chave fora

 A9
Deixa
(frase)                  E
Deixa mesmo de ser importante
                                F#m
Vai deixando a gente pra outra hora
                              D
E quando se der conta, já passou
          E (pausa)
Quando olhar pra trás, já fui embora

Frase Refrão:



E|-4/5-4-2-0------------------------------------------|
B|----------------------------------------------------|
G|-5/6-4-2-1------------------------------------------|
D|----------------------------------------------------|
A|----------------------------------------------------|
E|----------------------------------------------------|


Base Solo Refrão:

A9 (pausa) E  F#m  D

Solo:

Solo Refrão:

Parte 1


E|-----5--5-5\4-4\2-2p0-0-2-2/4-----------------------|
B|----------------------------------------------------|
G|-4/6----6-6\4-4\2-2p1-1-2-2/4-----------------------|
D|----------------------------------------------------|
A|----------------------------------------------------|
E|----------------------------------------------------|


Parte 2


E|--5\4-4\2-2p0---0-0h2-------------------------------|
B|--------------2-------2-----------------------------|
G|--6\4-4\2-2p1---1-1h2-------------------------------|
D|--------------2-------2-----------------------------|
A|----------------------------------------------------|
E|----------------------------------------------------|


Parte 3


E|---0-0h2p0---0-0h2p0------------5-------------------|
B|-2---------2---------3\2----------------------------|
G|---1-1h2p1---1-1h2p1-----2--4/6---------------------|
D|-2---------2---------4\2-0--------------------------|
A|----------------------------------------------------|
E|----------------------------------------------------|


Primeira Parte:

A9                                E
   E todo esse caminho eu sei de cor
      (pausa)
Se eu não me engano
                     F#m
Agora vai me deixar só
                              D
O segundo passo é não me atender
                        B7
O terceiro é se arrepender
                                 E
Se o que dói em mim doesse em você

Refrão:

 A9
Deixa
(frase)                  E
Deixa mesmo de ser importante
                                F#m
Vai deixando a gente pra outra hora
                                 D
Vai tentar abrir a porta desse amor

Quando eu tiver jogado a chave fora

 A9
Deixa
(frase)                  E
Deixa mesmo de ser importante
                                F#m
Vai deixando a gente pra outra hora
                              D
E quando se der conta, já passou
          E (pausa)
Quando olhar pra trás, já fui embora

Base Solo Final:

A9  E  F#m

                              D
E quando se der conta, já passou
          E (pausa)              A
Quando olhar pra trás, já fui embora


Solo Final:

Parte 1


E|-----5--5-5\4-4\2-2p0-0-2-2/4-----------------------|
B|----------------------------------------------------|
G|-4/6----6-6\4-4\2-2p1-1-2-2/4-----------------------|
D|----------------------------------------------------|
A|----------------------------------------------------|
E|----------------------------------------------------|


Parte 2


E|--5\4-4\2-2p0---0-0h2-------------------------------|
B|--------------2-------2-----------------------------|
G|--6\4-4\2-2p1---1-1h2-------------------------------|
D|--------------2-------2-----------------------------|
A|----------------------------------------------------|
E|----------------------------------------------------|


Enviada por Sem inscrição
Nº de acordes: 7