Tom: G
Intro: G  D  Bm  A

Solo Intro: 

  G              D               Bm            A
E|-5-5------------5-5-------------5-5----------------| 
B|-----7-5-7~---------7-5--------------7-5-5----3-2~-|
G|-------------------------4~------------------------|
D|---------------------------------------------------|
A|---------------------------------------------------|
E|---------------------------------------------------|


Primeira Parte:
                          G
Aí você escolhe a melhor roupa
                        D
Aí você arruma o seu cabelo
                            Bm
E saí com aquela sua amiga louca
                                 A
Que diz que o bom da vida é ser solteiro
                           G
Me diz se adiantou alguma coisa
                      D
Procurar alívio passageiro
                    Bm
Beijar umas 4 ou 5 bocas
                                 A
Com beijos que não tem gosto de beijo

Pré-Refrão:
                             G
Aí lembrou de mim, não teve jeito
                             A
Aí lembrou de mim, não teve jeito

Refrão:
                 G
Beijou a boca errada, lembrou da boca certa
               D
Entrou numa gelada, lembrou da minha coberta
                     Bm
Sabe esse alguém perfeito que você tanto espera? 
   G       A
Eu era, eu era
            G
Aí você se lembra que a gente se completa
                  D
E vai voltar pra mim se for um pouco esperta
                       Bm
Porque esse alguém perfeito que você tanto espera
   G       A
Eu era, eu era

Solo: 

   G              D               Bm              A
E|-/5-5------------/5-5-------------/5-5---------------| 
B|------7-5h7~----------7-5--------------7-5-5----3p2~-|
G|--------------------------4~-------------------------|
D|-----------------------------------------------------|
A|-----------------------------------------------------|
E|-----------------------------------------------------|


Primeira Parte:
                          G
Aí você escolhe a melhor roupa
                        D
Aí você arruma o seu cabelo
                            Bm
E saí com aquela sua amiga louca
                                 A
Que diz que o bom da vida é ser solteiro
                           G
Me diz se adiantou alguma coisa
                      D
Procurar alívio passageiro
                    Bm
Beijar umas 4 ou 5 bocas
                                 A
Com beijos que não tem gosto de beijo

Pré-Refrão:
                             G
Aí lembrou de mim, não teve jeito
                             A
Aí lembrou de mim, não teve jeito

Refrão 2x:
                 G
Beijou a boca errada, lembrou da boca certa
               D
Entrou numa gelada, lembrou da minha coberta
                     Bm
Sabe esse alguém perfeito que você tanto espera? 
   G       A
Eu era, eu era
            G
Aí você se lembra que a gente se completa
                  D
E vai voltar pra mim se for um pouco esperta
                       Bm
Porque esse alguém perfeito que você tanto espera
   G       A
Eu era, eu era

Solo Final:

E|-5------------------| 
B|------7-5-5----3-2~-|
G|--------------------|
D|--------------------|
A|--------------------|
E|--------------------|


Enviada por Sem inscrição
Nº de acordes: 4