Capotraste 1ª casa

Tom: Dm

Intro: Sampler 


E|-----------------------------|-------------------------|
B|-----------------------------|-------------------------|
G|-----------------------------|-----------------------3-|
D|---------------------------3-|---3-3-3-3-----3-5-3-5---|
A|-5----5-5-5-5------5-5-3-5---|-------------------------|
E|-----------------------------|-------------------------|


E|-----------------------------|-------------------------|
B|-----------------------------|-------------------------|
G|-------3-3-3-3-----3-5-3-5---|-------------------------|
D|---------------------------7-|---7-7-7-5-------5-5-5---|
A|-----------------------------|-----------------------5-|
E|-----------------------------|-------------------------|


Dm      Dm7/F     Bb7+    Gm  A7
Hoje, é hoje, é hoje, é hoje!

Dm                   Dm7/F
Hoje eu tenho uma proposta
             Bb7+
A gente se embola
                  Gm    A7
E perde a linha a noite toda
Dm                   Dm7/F
Hoje eu sei que você gosta
               Bb7+
Então vem cá encosta
                  Gm    A7
Que assim você me deixa louca
Dm
E faz assim
      Dm7/F
De um jeito com sabor
         Bb7+
De quero mais sem fim
    Gm          A7
Não fala nada e vem
            Dm
Que hoje eu tô afim
   Dm7/F                   Bb7+
Eu tô na intenção de ter você pra mim
Gm     A7
Só pra mim

Dm
E hoje você não escapa
Dm7/F
Hoje vem que a nossa festa
Bb7+                     Gm     A7
Hoje eu tô querendo te pegar de novo
Dm
Hoje ninguém dorme em casa
Dm7/F
Hoje vai ser meu brinquedo
Bb7+                       Gm     A7
Hoje por que eu quero te pegar gostoso
Dm      Dm7/F     Bb7+
Hoje, é hoje, é hoje
                    Gm     A7
Eu tô querendo te pegar de novo
Dm      Dm7/F     Bb7+
Hoje, é hoje, é hoje
                    Gm     A7
Eu tô querendo te pegar gostoso


Enviada por Sem inscrição
Nº de acordes: 5