Lucy Rose

Shiver

Lucy Rose

1.698 exibições
Capotraste 7ª casa

Tom: G

D |--0--------0--------5--------5--------|
A |--0--------0--------5--------5--------|
Fb|--0--------1--------5--------5--------|
D |--0--------2--------5--------5--------|
A |--2--------2--------5--------7--------|
E |--3--------0--------7--------5--------|
     
     G        E        A1       A2


G       E 

    We broke
A1
Everything that was right
A2
We both enjoyed a good fight
G           E
   And we sold / [solved]
A1
All the holes we had to [bleed]/[breathe] 
A2                          G
To make the other one leave 



       E        A1               A2     G
And I love the way you looked at me
       E        A1              A2
And I miss the way you made me feel
       G
When we're alone
       G
When we're alone

E                            A1      A2
And I shiver like I used to
E                            A1       A2
And I leave him just for you
E                            A1        A2
And I shiver like I used to      

Just for you
Like I used to

D |--0--------0--------0--------0--------0--------|
A |--0--------0--------0--------0--------0--------|
Fb|--8--------0--------5--------4--------3--------|  x2   This is played 
D |--0--------7--------0--------0--------0--------|       twice over the last
A |--0--------0--------0--------0--------2--------|       two lines
E |--7--------5--------3--------2--------0--------|       of the chorus


And repeat for the rest

And we stole
Every moment we had to make the other one feel bad
And we hoped that we could be what we knew 
We'd never turn out to be real

And I love the way you looked at me
And I miss the way you made me feel 
When we're alone
When we're alone

And I shiver like I used to
And I leave him just for you
And I shiver like I used to
Just for you      


G          E             A1

And if we turn back time
           A2
Could we learn to live life

And if we turn back time
Could we learn to live life
And if we turn back time
Could we learn to live life
And if we turn back time
Could we learn 

And I shiver like I used to
And I leave him just for you
And I shiver like I used to
Just for you

Like I used to


Enviada por maicon-kike
Nº de acordes: 4