Lipstick

Sempre Quis

Lipstick

11 exibições
Capotraste 3ª casa

Tom: A

Intro: 

   A9                 D7M(9)
E|---------------0-|--------------------------------|
B|---------0-------|------2---3-----2-----3-----3---|
G|-----2-----2-----|----2---2---2-----2-----2-------|
D|---2---2-----2---|--0-----------2-----2-----2-----|
A|-0---------------|--------------------------------|
E|-----------------|--------------------------------|
   A9               D7M(9)↓       

E|---------------0-|------0-0-0-0----0~-----------------|
B|---------0-------|------2-2-2-2----2~-----------------|
G|-----2-----2-----|------2-2-2-2----2~-----------------|
D|---2---2-----2---|------0-0-0-0----0~-----------------|
A|-0---------------|------------------------------------|
E|-----------------|------------------------------------|

1ª parte:
A9
Nunca pensei em fazer uma letra assim
D7M(9)
Sem pensar em alguém ou num momento enfim
A9                         D7M(9)
Só juntando palavras, sem sentido algum

A9
Mas quando vi estava escrevendo para alguém
D7M(9)                                        A9
Em um momento que não sei exatamente o porque
                    D7M(9)
Eu me perdi tentando encontrar
A9                        C#m7           D6(9)
Uma palavra que ao menos dissesse o quero escrever
      A9                  C#m7           D6(9)
Ou um motivo que seria o bastante pra te dizer

Refrão:
          A9     C#m7
Que é pra você...
               D6(9)
Que me fez tão bem, sem ao menos saber
          A9     C#m7
Que é pra você...
               D6(9)
Que sempre escondeu o que não te fez bem
        A9           C#m7
É pra você que tenta ser
                   D6(9)
Tudo aquilo que eu sempre quis
      A9    C#m7
Sem saber...
             C7M
me fez falta aqui

2ª parte:
A9
Sei que pedi pra que ficasse tudo bem
D6(9)                               A9
E sorrisse pra mim como sempre fez
               D6(9)
Mas esqueci de imaginar
A9
Que teria de ver você bem longe daqui
D6(9)                              A9
E sorrindo pra mim como eu te pedi
                    D6(9)
Foi só assim que eu encontrei
A9                        C#m7           D6(9)
Uma palavra que ao menos dissesse o quero escrever
      A9                  C#m7           D6(9)
Ou um motivo que seria o bastante pra te dizer

Refrão:
          A9     C#m7
Que é pra você...
               D6(9)
Que me fez tão bem, sem ao menos saber
          A9     C#m7
Que é pra você...
               D6(9)
Que sempre escondeu o que não te fez bem
        A9           C#m7
É pra você que tenta ser
                   D6(9)
Tudo aquilo que eu sempre quis
      A9    C#m7
Sem saber...
             C7M
me fez falta aqui
   A9
E|---------------0-|  (2x)
B|---------0-------|
G|-----2-----2-----|
D|---2---2-----2---|
A|-0---------------|
E|-----------------|


Enviada por maicon-kike
Nº de acordes: 7