Legião Urbana

Tempo Perdido (Versão Especial)

Legião Urbana

15.485 exibições
Tom: Em

Obs.:A música fica quase toda no riff 1.
         C                      Am7                    Bm                     D
e|------------------------------------------------------------------------------------------|
b|-----12-----12-----12-----12----8---8---8---8-----10----10----10----10--------------------|
g|---12-----12-----12-----12-----9---9---9---9----11----11----11----11---------9---9----9\7-|
d|-10-----10-----10-----10------7---7---7---7----9-----9-----9-----9---------9---9----------|
a|-------------------------------------------------------------------------7----------7\5---|
E|------------------------------------------------------------------------------------------|

    C                     Am7                    Bm                  Em 
e|---------------------------------------------------------------------------------2----3-|
b|-----1-1---1p0----0---------1---1---3p1---1----------0---3---1----------0---------------|
g|---0-----0---------0------0---0-------------0------2---2---2---2----------0-------------|
d|---------------------2---------------------------1---------------0----2-----2-----------|
a|-3--------------3-------0---------0-----0------2----------------------------------------|
E|--------------------------------------------------------------------0----------0----0---|

             C                Am7
   Todos os dias quando acordo
 Bm                  Em
   Não tenho mais o tempo que passou
             C            Am7 
   Mas tenho muito tempo
         Bm              Em
   Temos todo o tempo do mundo
    C            Am7
   Todos os dias antes de dormir
   Bm                          Em
   Lembro e esqueço como foi o dia
   C                Am7
   Sempre em frente
        Bm                     Em
   Não temos mais tempo a perder
           C            Am7
   Nosso suor sagrado 
               Bm                   Em
   É bem mais belo que esse sangue amargo
          C   Am7     Bm     Em
   E tão sério  e selvagem
       Bm    Em  Bm     Em
   E selvagem, selvagem....
    C                  Am           Bm   
   Veja o sol dessa manhã tão cinza
         Em                     C                  
   A tempestade que chega é da cor dos teus olhos
      Bm     Em
   Castanhos..
               C        Am       Bm    
   Então me abraça forte e me diz mais uma vez
             Em       C          Am    
   Que já estamos distantes de tudo 
   Bm                   Em
   Temos nosso próprio tempo
   Bm                   Em
   Temos nosso próprio tempo
   Bm                   Em 
   Temos nosso próprio tempo

       C         Am       Bm            Em
   Não tenho medo do escuro   mas deixe
           C      Am  Bm    Em
   As luzes acesas    agora
          C                 Am
   O que foi escondido é o que se escondeu
           Bm                Em
   E o que foi prometido ninguém prometeu
           C             Am
   Nem foi tempo perdido
            Bm     Em
   Somos tão jovens
       Bm     Em
   Tão jovens
       Bm     Em             (C Am Bm Em) 4x
   Tão jovens
        C  Am7  Bm    Em   Bm  D
e|-0---0----0-----0---2---2--|
b|-1---1----3-----0---3---3--|
g|-0---0----2-----0---4---2--|
d|-2---2----1-----2---4---0--|
a|-3---0----2-----2---2------|
E|----------------0----------|

Por: Everton Rebelo Figueiredo (everton@brturbo.com)


Enviada por Sem inscrição
Nº de acordes: 6