Legião Urbana

Teatro Dos Vampiros (Acústico MTV)

Legião Urbana

16.995 exibições
(Renato Russo/Marcelo Bonfá)                                             .Legião Urbana V

Tom: C

[Riff 1] de Introdução
   Bm   D         Bm    C     Bm    C      D
E|----------------------------------------------|
B|---3----7----7----3------5----3------5------7-|1
G|--4-------------------------------------------|v    [Sozinho]
D|-4----7----7----4----4/5----4----4/5----5/7---|e 
A|----------------------------------------------|z
E|----------------------------------------------|

[Riff 2] de Introdução
   Bm         D        Bm        C       Bm      C      D
E|-7-5-7-10-8-7-5-7---------------------------------------|
B|------------------8---7h8p7p5---5-----------------------|1
G|------------------------------7-----4h5p4p2-4-4/5--4--2-|v  [Junto com Riff 1]
D|--------------------------------------------------------|e
A|--------------------------------------------------------|z
E|--------------------------------------------------------|
____________________________________________________________________________________________________
(Riffs durante a Música)

[Riff 3] - Versos             [Riff 4] - Versos          [Riff 5] - Versos
   C          Bm                Bb                         C           F
e|-------3-----------0-----|3 |---1----1----1----1----1-||----------------|       
B|----5---5------3----3----|v |-------------------------||-3/5-5-5-5-3-1-1|
G|-------------------------|e |-------------------------||----------------|
D|-5--------5-4---4-----4--|z |-3----3----3----3----3---||----------------|
A|-------------------------|e |-------------------------||----------------|
E|-------------------------|s |-------------------------||----------------|
                 
[Riff 6] - Refrão
  G                                   F                    C/G                     
E|---3--3--3--3--3--3--3--3--3--3--3----5---5---5---5---5----3---3---3---3----5-|  
B|------------------------------------------------------------------------------| 
G|-4--4--4--4--4--4--4--4--4--4--4----5---5---5---5---5----5---5---5---5----5---|
D|------------------------------------------------------------------------------|
A|------------------------------------------------------------------------------|
E|------------------------------------------------------------------------------|

   G
E|-----7---7---7---7---7--7/-8-8-8-7-5-5-5-7-7-7-5-5-5-|  
B|------------------------8--8-8-8-8-8-8-8-8-8-8-8-8-8-| 
G|-5/7---7---7---7---7---------------------------------|
D|-----------------------------------------------------|
A|-----------------------------------------------------|
E|-----------------------------------------------------|

   F                      C/G              G
E|---5---5---5---5---5------3---3---3---3---5-----7---7---7---7---7--7--8-7------7--8-7---|  
B|--------------------4-----------------------------------------------------8-----------8-| 
G|-5---5---5---5---5---5--5---5---5---5---5---5/7---7---7---7---7---7----------7----------|
D|----------------------------------------------------------------------------------------|
A|----------------------------------------------------------------------------------------|
E|----------------------------------------------------------------------------------------|

 [Riff 7] - Final                                             Na 2ª Termine assim!
    G           Em      D/F#   G           Bm        Am         G
E|--7-7-8--7-7--3-3--3--5-5----7-7-8--7-7--10-10--10--8--8-|2 --7-----------------|
B|--8-8-8--8-8--5-5--5--7-7----8-8-8--8-8--12-12--12-10-10-|v --8-----------------|
G|--7-7-7--7-7-----------------7-7-7--7-7------------------|e --7-----------------|
D|---------------------------------------------------------|z --------------------|
A|---------------------------------------------------------|e --------------------|
E|---------------------------------------------------------|s --------------------|
____________________________________________________________________________________________________

[Riff 3]
C                      Bm               C
Sempre precisei de um pouco de atenção, Acho que não sei quem sou
   Bm                    C                   Bm
Só sei do que não gosto, E destes dias tão estranhos

[Riff 4]                                [Riff 5]
      Bb                              C    
Fica poeira se escondendo pelos cantos

[Riff 3]
C              Bm               C                 Bm
Este é o nosso mundo: o que é demais nunca é o bastante
            C                      Bm
E a primeira vez é sempre a última chance.

[Riff 4]                                         [Riff 5]
        Bb                                     C      
Ninguém vê onde chegamos: Os assassinos estão livres, nós não estamos   

[Riff 6]
       G
Vamos sair - mas não temos mais dinheiro, Os meus amigos todos estão procurando emprego
   F                                        C/G                                           G
Voltamos a viver como há dez anos atrás, E a cada hora que passa Envelhecemos dez semanas
                                                                                                F
Vamos lá, tudo bem - eu só quero me divertir, Esquecer, dessa noite ter um lugar legal pra ir
                                          C/G
Já entregamos o alvo e a artilharia, Comparamos nossas vidas, e esperamos que um dia
       G
Nossas vidas possam se encontrar

[Riff 3]
C            Bm               C                   Bm     C                   Bm
Quando me vi tendo de viver comigo apenas e com o mundo, Você me veio como um sonho bom

[Riff 4]                  [Riff 5]
     Bb                       C
E me assustei, Não sou perfeito, Eu não esqueço

[Riff 3]
                   Bm    C                 Bm       C                  Bm  
A riqueza que nós temos, Ninguém consegue perceber, E de pensar nisso tudo, 

[Riff 4]          [Riff 5]
Bb                C
Eu, homem feito, Tive medo e não consegui dormir.   

[Riff 6]
       G
Vamos sair - mas não temos mais dinheiro, Os meus amigos todos estão procurando emprego
   F                                        C/G                                           G
Voltamos a viver como há dez anos atrás, E a cada hora que passa Envelhecemos dez semanas
                                                                                                F
Vamos lá, tudo bem - eu só quero me divertir, Esquecer, dessa noite ter um lugar legal pra ir
                                          C/G                                     G
Já entregamos o alvo e a artilharia, Comparamos nossas vidas, E mesmo assim, não tenho pena de 
          [Riff 7] - (G   Em  D/F#  G  Bm  Am  G)
ninguém.
____________________________________________________________________________________________________
Notações

/ ou s - Slide    - Sig: Deslizar - (Deslize o seu dedo sobre as cordas)
h      - Hammer   - Sig: Martelo  - (Martele a corda na casa indicada)
p      - Pull-Off - Sig: Extrair  - (Toque e largue rapidamente soando a próxima nota)
____________________________________________________________________________________________________
Transcrita por: Renan Pinto dos Santos


Enviada por Sem inscrição
Nº de acordes: 10