Legião Urbana

Central Do Brasil

Legião Urbana

1.613 exibições
Dedilhe estes acordes enquando um violão de 12 cordas faz o solo.

   G              F              D             G
E|-10---------------------------------------------------|
B|------10-12----10---10/12-12--------------------------|
G|-------------------------------11---11-11----11--12---|
D|------------------------------------------------------|
A|------------------------------------------------------|
E|------------------------------------------------------|(2x)

       Em     G7        C         Am     D4 D   G
E|---------------------------------0------3-2-----------|
B|---------------------------------1------3-3-3-3-------| 
B|--10/12---9/10-10---7/9---9-9----2------2-2-----------| 
D|---------------------------------2------0-0-----------|
A|---------------------------------0--------------------|
E|------------------------------------------------------|(2x)

   G              F              D             G
E|-10---9-----------------------------------------------|
B|---------12----10---10/12-12--------------------------|
G|-------------------------------11---11-11----11--12---|
D|------------------------------------------------------|
A|------------------------------------------------------|
E|------------------------------------------------------|(2x)

   Em7           Am7             Bm7           Bm7 D4
E|-10---9-----------------------------------------------|
B|---------12----10---10/12-12--------------------------|
G|-------------------------------11---11-11----11--12---|
D|------------------------------------------------------|
A|------------------------------------------------------|
E|------------------------------------------------------|

   G              F              D             G
E|-10---------------------------------------------------|
B|------10-12----10---10/12-12--------------------------|
G|-------------------------------11---11-11----11--12---|
D|------------------------------------------------------|
A|------------------------------------------------------|
E|------------------------------------------------------|

       Em     G7        C         Am     D4 D   G
E|---------------------------------0------3-2-----------|
B|---------------------------------1------3-3-3-3-------| 
B|--10/12---9/10-10---7/9---9-9----2------2-2-----------| 
D|---------------------------------2------0-0-----------|
A|---------------------------------0--------------------|
E|------------------------------------------------------|(3x)


Enviada por luca_cs
Nº de acordes: 11