Sem imagem

Believe

K'S Choice

114 exibições
Tom: F
Intro: 
E-----1---1---1---1---1---1---1
B-2-1---1---1---1---1---1---1---1
F              F/E
Bravely I look further than I see
Am               Bb                (no chord)
Knowing things I know I cannot be, not now
F                     F/E
I'm so aware of where I am, but I don't know where that is
Am                             Bb
And there's something right in front of me and I
Bb                      C
Touch the fingers of my hand
                     Bb
And I wonder if it's me
                     F
Holding on and on to Theories of prosperity
C
Someone who can promise me
Am           Bb
I believe in me
F                     F/E
Tomorrow I was nothing, yesterday I'll be
Am                      Bb       (no chord)
Time has fooled me into thinking it's a part of me
F               F/E
Nothing in this room but empty space
Am                        Bb
No me, no world, no mind, no face
Bb                      C                        Bb
Touch the fingers of my hand and tell me if it's me
                     F
Holding on and on to Love, what else is real
C                       
A religion that appeals to me, oh
Am           Bb
I believe in me
F       Bb        F            Bb          F
Can you turn me off for just a second, please
        G              Bb
Turn me into something faceless, weightless, mindless, homeless Vacuum state of peace
F                           C
On and on and on and on and on and on and on and on
Am           Bb
I believe in me
F                           C
On and on and on and on and on and on and on and on
Am           Bb
I believe in me
F            F/E
Wait for me, I'm nothing on my own
Am    			  Bb
I'm willing to go on, but not alone, not now
F                         F/E
I'm so aware of everything, but nothing seems for real and
Am                   Bb
As long as you're in front of me then I'll
Bb                         C
I watch the fingers of our hands
                           Bb
And I'm grateful that it's me
                             F                    C
Holding on and on and on and on and on and on and on and on and on and on
Am           Bb
I believe in me
F      F     Csus2  Csus2  Am    Am     Bbsus2 Bbsus2
F      F     Csus2  Csus2  Am    Am     Bbsus2
I'm willing to go on but not alone, not now
F      F     Csus2  Csus2  Am    Am     Bbsus2 Bbsus2
I'm willing to go on but not alone, not now
F      F     Csus2  Csus2  Am    Am     Bbsus2
I'm so aware of everything
F      F     Csus2  Csus2  Am    Am     Bbsus2 Bbsus2
I'm willing to go on but not alone, not now
I'm willing to go on but not alone, not now
I'm so aware of everything
Db     Db     Db - end
RIFFS
=====
Riff I)
   F                               F/E
e ---------------------------------------------------------------
B ---------------------------------------------------------------
G ---------------------------------------------------------------
D -----3-------3-------3-------3-------3-------3-------3-------3-
A -3-------3-------3-------3-------3-------3-------3-------3-----
E ---1-------1-------1-------1-------0-------0-------0-------0---
   Am                              Bbsus2
e ---------------------------------------------------------------
B ---------------------------------------------------------------
G -----2-------2-------2-------2-------3-------3------(3)-----(3)
D -2-------2-------2-------2-------3-------3-------3------(3)----
A ---0-------0-------0-------0-------1-------1-------1------(1)--
E ---------------------------------------------------------------
Riff II)
   Bbsus2                          Csus2                        
e ---------------------------------------------------------------
B ---------------------------------------------------------------
G -----3-------3-------3-------3-------5-------5-------5-------5-
D -3-------3-------3-------3-------5-------5-------5-------5-----
A ---1-------1-------1-------1-------3-------3-------3-------3---
E ---------------------------------------------------------------
   Bbsus2                          F                               
e ---------------------------------------------------------------
B ---------------------------------------------------------------
G -----3-------3-------3-------3---------------------------------
D -3-------3-------3-------3-----------3-------3-------3-------3-
A ---1-------1-------1-------1-----3-------3-------3-------3-----
E -----------------------------------1-------1-------1-------1---
   Csus2                           Am                             
e ---------------------------------------------------------------
B ---------------------------------------------------------------
G -----5-------5-------5-------5-------2-------2-------2-------2-
D -5-------5-------5-------5-------2-------2-------2-------2-----
A ---3-------3-------3-------3-------0-------0-------0-------0---
E ---------------------------------------------------------------
  
   Bbsus2                          Bbsus2                         
e ---------------------------------------------------------------
B ---------------------------------------------------------------
G -----3-------3-------3-------3-------3-------3-------3-------3-
D -3-------3-------3-------3-------3-------3-------3-------3-----
A ---1-------1-------1-------1-------1-------1-------1-------1---
E ---------------------------------------------------------------
Riff III)
   F               Bbsus2          F               Bbsus2        
e ---------------------------------------------------------------
B ---------------------------------------------------------------
G ---------------------3-------3-----------------------3-------3-
D -----3-------3---3-------3-----------3-------3---3-------3-----
A -3-------3---------1-------1-----3-------3---------1-------1---
E ---1-------1-----------------------1-------1-------------------
   F               G               Bbsus2        
e ---------------------------------------------------------------
B ---------------------------------------------------------------
G ---------------------------------------------------------------
D -----3-------3-------5-------5---3-----------------------------
A -3-------3-------5-------5---------1---------------------------
E ---1-------1-------3-------3-----------------------------------
                  



STRUCTURE
=========
2 x Riff I)
1 x Riff II)
2 x Riff I)
1 x Riff III)
Now comes the loud part:
F	F	Csus2	Csus2	Am	Am	Bbsus2	Bbsus2
F	F	Csus2	Csus2	Am	Am	Bbsus2	Bbsus2
Then (based on Riff I):
F	F	F/E	F/E	Am	Am	Bbsus2	Bbsus2
F	F	F/E	F/E	Am	Am	Bbsus2	Bbsus2
And then (based on Riff II):
Bbsus2	Bbsus2	Csus2	Csus2	Bbsus2	Bbsus2	F	F
Csus2	Csus2	Am	Am	Bbsus2
And then:
F	F	Csus2	Csus2	Am	Am	Bbsus2	Bbsus2
F	F	Csus2	Csus2	Am	Am	Bbsus2
F	F	Csus2	Csus2	Am	Am	Bbsus2	Bbsus2
F	F	Csus2	Csus2	Am	Am	Bbsus2
F	F	Csus2	Csus2	Am	Am	Bbsus2	Bbsus2
Db	Db	Db - end


Enviada por Sem inscrição
Nº de acordes: 9