Korn

Counting

Korn

115 exibições
Tuned Down One Half Whole Step (DGCFAd)

(Intro and Verse) 

(Guitars 1 and 2)
d ||----------------------||---------------------|
A ||----------------------||---------------------|
F ||----------------------||---------------------|
C ||-6--7--6--6--7--5--5--||-6--7--6--6--7--5----|
G ||-4--5--4--4--5--3--3--||-4--5--4--4--5--3----|
D ||----------------------||---------------------|
(note:Intro is played clean..then the distortion kicks in.)


(Chorus)

(Guitars 1 and 2)
d ||------------------------|
A ||------------------------|
F ||--------5--4------------|
C ||--4--5--5--4------------|
G ||--4--5--3--2------------|
D ||--2--3------------------|(Distortion)


(Part Where Jon Sings..."It's funny how we've just started...")

d ||--------11--12--11--------8--8--8--|
A ||-----------------------------------|
F ||--8--6--------------6--5-----------|
C ||-----------------------------------|
G ||-----------------------------------|
D ||-----------------------------------|


Enviada por Sem inscrição
Nº de acordes: 0