Sem imagem

You Really Got Me

Kinks, The

838 exibições
Tom: G
[Intro] (Riff1) (Little distortion)
G / A // G / A /  (guitar only)
G / A // G / A /  (guitar only)
G / A // G / A /  (drum + bass enter)
G / A // G / A /
Riff1
e---------------------------------------------------------|
B---------------------------------------------------------|
G---2-2---2--------2-2---2--------2-2---2--------2-2---2--|
D---2-2---2--------2-2---2--------2-2---2--------2-2---2--|
A---0-0---0--------0-0---0--------0-0---0--------0-0---0--|
E-3-----3--------3-----3--------3-----3--------3-----3----|
  G A A G A      G A A G A      G A A G A      G A A G A
Riff2 (Pre-Chorus)
e----------------------------------------------------
B----------------------------------------------------
G----------------------------------------------------
D-4-4-4-4----4-4-4-4-4----4-4-4-4-4----4-4-4-4-4-----
A-2-2-0-2----0-2-2-0-2----0-2-2-0-2----0-2-2-0-2-----
E----------------------------------------------------
  B B A B    A B B A B    A B B A B    A B B A B
Riff3 (Chorus)
e----------------------------------------------------|
B----------------------------------------------------|
G-9-9-7-9~\--7-9-9-7-9~\--7-9-9-7-9~\--7-9-9-7-9~\---|
D-9-9-7-9~\--7-9-9-7-9~\--7-9-9-7-9~\--7-9-9-7-9~\---|
A-7-7-5-7~\--5-7-7-5-7~\--5-7-7-5-7~\--5-7-7-5-7~\---|
E----------------------------------------------------|
  E E D E    D E E D E    D E E D E    D E E D E
[Verse1] (Riff1)
G / A // G / A /            G / A // G / A /
    Girl_____,       you really got me going_
       G / A // G / A /            G / A // G / A /
You got me so__ I don't know what_ I'm doin'__
G / A // G / A /            G / A // G / A /
    Yeah__eah_,      you really got me now_
       G / A // G / A /        G / A // G / A /
You got me so__ I can't sleep_ at_ night_
[Pre-Chorus] (Riff2)
B B A B              A B B A B
  Yeah__,   you really got me now__
 (Yeah_____________________________)
         A B B A B                 A B B A B
You got me so__ I don't know where I'm goin'_, yeah__
(____________________________________________________)
[Chorus1] (Riff3)
   E E D E               D E E D E
Oh Yeah____,    you really got_ me now__
  (Yeah_________________________________)
         D E E D E
You got me so_ I can't sleep at night
(_______________________________________)
D    E    E   D    E           D    E    E   D    E
You_ real_ly_ got_ me_!        You_ real_ly_ got_ me_!
D    E    E   D    E           D (strum)
You_ real_ly_ got_ me_!
[Verse2] (Riff1)
G / A // G / A /            G / A // G / A /
    See______,       don't ever set me free__
       G / A // G / A /     G / A // G / A /
I_ always_ wanna be by your_ side___
G / A // G / A /            G / A // G / A /
    Girl_____,       you really got me now_
       G / A // G / A /        G / A // G / A /
You got me so__ I can't sleep_ at_ night_
[Pre-Chorus] (Riff2)
B B A B              A B B A B
  Yeah__,   you really got me now__
 (Yeah_____________________________)
         A B B A B                 A B B A B
You got me so__ I don't know where I'm goin'_, yeah__
(____________________________________________________)
[Chorus2] (Riff3)
   E E D E               D E E D E
Oh Yeah____,    you really got_ me now__
  (Yeah_________________________________)
         D E E D E
You got me so_ I can't sleep at night
(_______________________________________)
D    E    E   D    E           D    E    E   D    E
You_ real_ly_ got_ me_!        You_ real_ly_ got_ me_!
D    E    E   D    E           D (strum)
You_ real_ly_ got_ me_!          Oh__  oh_ no__!
[Solo]
G / A // G / A /    (8x)
Solo (Distortion)
e--------------------------------------------------------------------------
B---------------------------------------------------8-------------------8--
G-7b8-8-8-8-8-8-8---7b8-8-8r7---5---5---5---5---7b8---7b8-5---5---5-7b8----
D-----------------------------7---7---7---7---7-------------7---7----------
A--------------------------------------------------------------------------
E--------------------------------------------------------------------------
e-8-5---------------------------------8-5-------------------------------------
B-----8-5~--------------------------------8-5---5-----------------------------
G-------7~----5---5---5-7^8-^8-7-5------------7-7--5---5---5---7b8r7b8r7b8~~--
D---------------7---7--------------7-----------------7---7--------------------
A-----------------------------------------------------------------------------
E-----------------------------------------------------------------------------
G / A // G / A /
G / A // G / A /
[Repeat Verse2]
[Repeat Pre-Chorus]
[Chorus3] (Riff3)
   E E D E               D E E D E
Oh Yeah____,    you really got_ me now__
  (Yeah_________________________________)
         D E E D E
You got me so_ I can't sleep at night
(_______________________________________)
D    E    E   D    E           D    E    E   D    E
You_ real_ly_ got_ me_!        You_ real_ly_ got_ me_!
D    E    E   D    E           E!   E!   E!   E~~
You_ real_ly_ got_ me_!


Enviada por Sem inscrição
Nº de acordes: 5