Kevin Devine

Write Your Story Now

Kevin Devine

82 exibições
This is an awesome upbeat song and its so much fun to play so get it down and enjoy!!!

Standard Tuning E w/ Capotraste on 2nd fret.

All questions and comments should be sent to me at BCBOY*


              I'm running out of things to say to you...
e--------------------------------|
B-----------3--3--3--3--3--3--3--|
G-----------4--4--4--4--4--4--4--|
D--4-2------4--4--4--4--4--4--4--|
A------4-5--2--0--X--X--2--X--X--|
E-----------------3--3--0--2--3--|

              "This always takes so long", is what you said...
e--------------------------------|
B-----------3--3--3--3--3--3--3--|
G-----------4--4--4--4--4--4--4--|
D--4-2------4--4--4--4--4--4--4--|
A------4-5--2--0--X--X--2--X--X--|
E-----------------3--3--0--2--3--|

              This kind of wordplay gets you ostrisized...
e------------------------------------------------------------------------|
B-----------3--3--3--3-------3--3--3--3-------3--3--3--3-------3--3--3---|
G-----------4--4--4--4-------4--4--4--4-------4--4--4--4-------4--4--4---|
D--4-2------4--4--4--4-------4--4--4--4-------4--4--4--4-------4--4--4---|
A------4-5--X--X--2--0-------X--X--2--0--2-0--X--X--2--0-------X--X--0---|
E-----------3--3--------0-2--3--3-------------3--3--------0-2--3--3------|

              I'm runnin' out faster, than I ever have before...
e--------------------------------|
B-----------3--3--3--3--3--3--3--|
G-----------4--4--4--4--4--4--4--|
D--4-2------4--4--4--4--4--4--4--|
A------4-5--2--0--X--X--2--X--X--|
E-----------------3--3--0--2--3--|

              I'm seein' double and everywhere I turn my head...
e--------------------------------|
B-----------3--3--3--3--3--3--3--|
G-----------4--4--4--4--4--4--4--|
D--4-2------4--4--4--4--4--4--4--|
A------4-5--2--0--X--X--2--X--X--|
E-----------------3--3--0--2--3--|

  Things look like you again...     so get your notebook out...
e----0--5--5--5--5--5-3-2-0----5--5--5--5--|
B----2--3--3--3--3--3-3-3-3----3--3--3--3--|
G----2--2--2--2--2--2-2-0-0----2--2--2--2--|
D----2--0--0--0--0--0-0-0-0----0--0--0--0--|
A----0-----2--X--X--X-X-X-X-------2--X--X--|
E-------------2--3--3-3-3-3----------2--3--|

   story now... write your....    write your....
e--------------------------------------------------------------------------|
B-----------3--3--3-----------3--3--3-----------3--3--3-----------3--3--3--|
G-----------4--4--4-----------4--4--4-----------4--4--4-----------4--4--4--|
D--4-2------4--4--4--4-2------4--4--4--4-2------4--4--4--4-2------4--4--4--|
A------4-5--2--0--X------4-5--2--0--X------4-5--2--0--X------4-5--2--0--X--|
E-----------------3-----------------3-----------------3-----------------3--|

e-------------------------------------              e---------|
B-------------------------------------              B----3----|
G-------------------------------------              G----4----|
D--4-2-----4-2-----4-5-4-2-----2-4----    End On    D----4----|
A------4-5-----4-5---------4-5--------              A----2----|
E-------------------------------------              E---------|


Enviada por Sem inscrição
Nº de acordes: 0