Juanes

La Camisa Negra

Juanes

144 exibições
Tom: F#m		

(intro) F#m (antes de começar o riff)
        F#m Bm F#m Bm C#7 (entra junto com o riff)


E|------------------------------------------------------------|
B|------------------------------------------------------------|
G|-1/2-2---1/2-2-1/2-2--2/4-4-2/4-4-2/4-4--5/6-6-5/6-6-5/6-6--|
D|-3/4-4---3/4-4-3/4-4--4/6-6-4/6-6-4/6-6--6/7-7-6/7-7-6/7-7--|
A|------------------------------------------------------------|
E|------------------------------------------------------------|



E|------------------------------------------------------|
B|------------------------------------------------------|
G|-7-7-11-11-10---------------2-2-2---2-6-6p2-2-6-6p2-2-|
D|-9-9-12-12-11h12p11-9-7-6-4-------4--------4-------4--|
A|------------------------------------------------------|
E|------------------------------------------------------|



E|-----------------------------------------------------------|
B|-----------------------------------------------------------|
G|------4-4-4---4-7p4-4-7-7p4-4----2-2-2---2-6-6p2-2-6-6p2-2-|
D|-—4/6-------6------6-------6---4-------4--------4-------4--|
A|-----------------------------------------------------------|
E|-----------------------------------------------------------|



E|----------------------------------------------------------------|
B|------------------------------2------------------2--------------|
G|-----4-4-6-7-6h7p6-4-2------2---2--2-2---------2---2--2-2-------|
D|-4/6-------------------6--4-------4--4---4---4-------4--4---4---|
A|-----------------------------------------4------------------4---|
E|----------------------------------------------------------------|



E|----------------------------------------|
B|------2------------------2--------------|
G|----2---2--2-2---------2---2--2-2-------|
D|--4-------4--4---4---4-------4--4---4---|
A|-----------------4------------------4---|
E|----------------------------------------|


F#m                   Bm
     Tengo la camisa negra
                       F#m
hoy mi amor está de luto
                            Bm
hoy tengo en el alma una pena
          C#7              F#m
y es por culpa de tu embrujo

F#m                     Bm
Hoy sé que tu ya no me quieres
                        F#m
y eso es lo que mas me hiere
                     Bm
que tengo la camisa negra
       C#7          F#m
y una pena que me duele

F#m                     Bm
mal parece que solo me quede
                       F#m
y jue pura todita tu mentira
                          Bm
que maldita mala suerte la mia
           C#7          F#
que aquel dia te encontré

F#        C#        D#m
   Por beber del veneno
     B           F#
malevolo de tu amor
       C#      D#m
yo quede moribundo
      B       F#
y lleno de dolor
      C#        D#m
respiré de ese humo
     B          F#
amargo de tu adios
          C#          D#m    B
y desde que tu te fuiste yo solo...

F#m                     Bm
Tengo, tengo la camisa negra
                      F#m
Porque negra tengo el alma
                    Bm
Yo por ti perdí la calma
        C#7            F#m
Y casi pierdo hasta mi cama
F#m               Bm
cama c'mon c'mon baby
                 F#m
te digo con disimulo
                     Bm
que tengo la camisa negra
          C#7        F#m
y debajo tengo el difunto

(riff da intro novamente + parte final da intro)

F#m              Bm
Tengo la camisa negra
                      F#m
ya tu amor no me interesa
                        Bm
lo que ayer me supo a gloria
        C#7    F#m
hoy me sabe a pura

miercoles por la tarde
F#m           Bm
y tu que no llegas
                     F#m
nisiquiera muestras señas
                    Bm
y yo con la camisa negra
         C#7         F#m
y tus maletas en la puerta

F#m                     Bm
mal parece que solo me quede
                       F#m
y jue pura todita tu mentira
                          Bm
que maldita mala suerte la mia
            C#7          F#
que aquel dia te encontré

F#        C#        D#m
   Por beber del veneno
     B           F#
malevolo de tu amor
       C#      D#m
yo quede moribundo
      B       F#
y lleno de dolor
      C#        D#m
respiré de ese humo
     B          F#
amargo de tu adios
          C#          D#m    B
y desde que tu te fuiste yo solo...

F#m                     Bm
Tengo, tengo la camisa negra     -
                      F#m        -
Porque negra tengo el alma       -
                    Bm           -
Yo por ti perdí la calma         -
        C#7            F#m       -
Y casi pierdo hasta mi cama      -
F#m               Bm             -    (2x) (Na segunda vez entra o riff da intro mas a música acaba
cama c'mon c'mon baby            -          antes da parte final)
                 F#m             -
te digo con disimulo             -
                     Bm          -
que tengo la camisa negra        -
          C#7        F#m         -
y debajo tengo el difunto        -


Enviada por lui
Nº de acordes: 8