Sem imagem

Danoninho

Jingles

5.913 exibições
Versão 1
---------
Musica do Danoninho
por :cyro_2000@mailbr.com.br 


e|--9-7--5-3-------------------------------------------------------------------------------
b|------------5-3-3-3-5-3-----------3-1-0--0-0-1-3--5-5-5-5-6-5-3-3-3-5-5-7-7-7-7-5-7-8-8-- 
g|------------------------5-5-5-5-5--------------------------------------------------------
d|-----------------------------------------------------------------------------------------
a|-----------------------------------------------------------------------------------------
e|----------------------------------------------------------------------------------------- 

Versão 2
--------
Musica do Danoninho
por :waldinho  
 


e|--9-7--5-4-------------------------------------------4-------------------4-4-4-----4--5--
b|------------7-5-5-5-7-5-3-3-3-5-3-2--2-2-3--5-7-7-7-----7-5------5-5-7-5--------7--------
g|-----------------------------------------------------------------------------------------
d|-----------------------------------------------------------------------------------------
a|-----------------------------------------------------------------------------------------
e|----------------------------------------------------------------------------------------- 



Música do Danoninho
por: BrunoIZ

E|--8-6-------------------------------------------------------------------------------------------------
B|--------9-8----6---------6------------------------------6---6-6-8-6---------6---8---8-8-6-8-9---9-9--
G|-----------------8---8-8---8-6---6-6-8-6------------6-8-------------8---8-8---8-----------------------
D|-----------------------------------------10---10-10---------------------------------------------------
A|------------------------------------------------------------------------------------------------------
E|------------------------------------------------------------------------------------------------------


Enviada por Sem inscrição
Nº de acordes: 0