Afinação 1/2 tom, abaixo: Eb

Tom: Em

    Em                     D9    D D4          C9   
Eb|-------------0--------|----0/2--2--2/3----|--------------3-------|
Bb|------(0)------(0)----|-----------------3-|-------(3)-------3----|
Gb|---(0)------------(0)-|-------------------|---(0)--------------0-|
Db|----------------------|-0-----------------|----------------------|
Ab|----------------------|-------------------|-3---------3----------|
Eb|-0-------(0)----------|-------------------|----------------------|

    D9   D D4          Em                     D9    D D4
Eb|----0/2--2--2/3----|-------------0--------|----0/2--2--2/3----|
Bb|-----------------3-|------(0)------(0)----|-----------------3-|
Gb|-------------------|---(0)------------(0)-|-------------------|
Db|-0-----------------|----------------------|-0-----------------|
Ab|-------------------|----------------------|-------------------|
Eb|-------------------|-0-------(0)----------|-------------------|

    C9                       Em
Eb|------------------(0)---|-------------0------|
Bb|------(3)------(3)------|------(0)-----------|
Gb|---(0)------------------|---(0)--------------|
Db|-------------0--------0-|--------------------|
Ab|-3-------(3)------------|--------------------|
Eb|------------------------|-0-------(0)------0-|


    Em                     D9                        C9                D9   
Ich will euch erzählen von Glück und von Freude, vom Spaß am Leben und Sein,
    Em                    D9                  C9          D9       Em
von Trigardons Seele, die hellend erleutet am Nachthimmel über uns scheint,
   C9          D9       Em          C9          D9       Em
am Nachthimmel über uns scheint, am Nachthimmel über uns scheint.

Ehre der Göttin des Mondes der Nacht, Riasina wie man sie nennt,
die wer du auch bist und was du auch tust, dein Leben liebet und kennt,
dein Leben liebet und kennt, dein Leben liebet und kennt.

       Em                    D9                     C9               D9   
   Ich weih' meine Seele der Silbernen Göttin, mein Herz dem Feuer allein,
      Em                  D9         
   verwehre mein Blut den Zecken der Feinde. 
         C9       D9         Em          C9       D9        Em
   Trigardon mein Leben sein dein! Trigardon mein Leben sei dein!

Wisset, dass jeder, der Frohsinn bezeuget, im Gunste der Mondgöttin steht
und für seinen Lebtag als stiller Begleiter in Sicherheit neben ihr geht
in Sicherheit neben ihr geht, in Sicherheit neben ihr geht.

       Em
   Ich weih' meine Seele...

Alsdann lasst uns feiern aus tiefster Seele - trinken und tanzen vereint -
und der Herrin zeigen, dass unser Weg bestimmt ist durch ihren Schein,
bestimmt ist durch ihren Schein, bestimmt ist duch ihren Schein.

       Em
   Ich weih' meine Seele...
   
        C9           D9            Em
   Trigardon   mein   Leben   sei   dein!


Enviada por Sem inscrição
Nº de acordes: 5