Ivete Sangalo

Pra Frente

Ivete Sangalo

267 exibições
Tom: Bm
Intro: Em  G  F#

E|--12-15~--12/--12-15~-14--15-14-12----------|
B|-----------------------------------15-14-12-|
G|--------------------------------------------|
D|--------------------------------------------|
A|--------------------------------------------|
E|--------------------------------------------|

Intro: (Bm  Em  F#  Bm) 2x

E|----10-7------------------------------------|
B|--8------8-7--------------------------------|
G|--------------------------------------------|
A|--------------------------------------------|
D|--------------------------------------------|
E|--------------------------------------------|

      Bm                 Em
Tripulantes da nave ambulante
       F#           Bm
Com destino a felicidade 

Quem bate, quem bate 
            Em
Quem sabe, sabe
                  F#                      Bm
Desfruta essa energia do calor que vem da rua
 

Quem bate, quem bate
            Em
Quem sabe, sabe
                  F#                      Bm
Desfruta essa energia do calor que vem da rua 
  

    Em        G F#
Me beija, me leva 
                  Bm
Me deixa mais contente 

Pra frente, pra frente, frente
                          Em
Pra frente, pra frente, frente
           F#               Bm
Nossa vida vai, nossa vida vai
 

Pra frente, pra frente, frente
                          Em
Pra frente, pra frente, frente
            F#
Nossa vida vai
                  Bm
Como manda o figurino 
    Em       F# G
Me beija me leva me deixa mais contente


Enviada por Sem inscrição
Nº de acordes: 4