Ivete Sangalo

Amor Que Não Sai

Ivete Sangalo

57 exibições
Tom: B
Intro: B E9 B E9 C#m C#m/B F# F#4 F#7

B                  D#m
Quando acordo de manhã
       C#m            Em
Beija-flor no meu jardim
B                 D#m            C#m
E sinto o sol dourar a minha pele
  Em
E é tão bom

B                  D#m
Sempre acordo de manhã
       C#m            Em
Beija-flor no meu jardim
B                D#m                C#m  E/F#
Que bom ficar na sombra das mangueiras

E7+                             B
Lembro muito bem de um tempo feliz
                       C#m  E/F#
O mundo pertencia a gente
              B6     B7/13
E era tudo demais

E7+                             B
Mas sem você aqui, fica tudo assim
                         C#m7    C#m7/B
Tão diferente a solidão, vem
             A             F#
Leva meu sossego e minha paz

                    B   F#/A#
Esse amor que não sai
                   G#m   G#m/F#
Esse amor que não vem
              C#7       E/F#    G#m  E/F#
Que saudade louca de você, meu bem
                    B   F#/A#
Esse amor que não sai
                   G#m   G#m/F#
Esse amor que não vem
              C#7       E/F#    B
Que saudade louca de você, meu bem

Convenção Metais
  

E|------------------------------|
B|---12--10------12--10---------|
G|-----------11----------11-----|
D|---------------------------9--|
A|------------------------------|
E|------------------------------|

VOLTA INÍCIO

ARRANJO DE METAIS

E|--------------------------------------------------------------------------------|
B|--------------------------------------------------------------------------------|
G|----------------------------------------------------------------9-8-------------|
D|--9-9-9---9^8-8-8---6-6-6---6^4-6-7-8---9-9-9-9-9-------------------11-9--------|
A|--7-7-7---7^6-6-6---4-4-4---4^2-4-5-6---7-7-7-7-7---7-6-9-6--------------11^9---|
E|--------------------------------------------------------------------------------|

Leva meu sossego e minha paz
Esse amor que não sai
Esse amor que não vem
Que saudade louca de você, meu bem
Esse amor que não sai
Esse amor que não vem
Que saudade louca de você, meu bem


Enviada por Sem inscrição
Nº de acordes: 20