Gusttavo Lima

Homem De Família

Gusttavo Lima

109 exibições
Capotraste 2ª casa

Tom: G

     G             D9        A9                Bm  A9
E|---------------------------------------------------|
B|--3-------3-----3---------3/5-5-5-5/7\5-3----------|
G|--2h4-----4-----2-------------------------2-2/4\4--|
D|--0-------0-----0--4/5\4---------------------------|
A|----------------0----------------------------------|
E|--3----3-----3-------------------------------------|


(Primeira Parte)

G     D9     A9      Bm  D9/F#
Te olhei, você me olhou
  G                   D9                A9                     Bm
Agora minha vida acredita, nunca acreditei em amor à primeira vista

(Pré-refrão)

               G      D9
Até você aparecer do nada (riff 1)
                     A9                        Bm
E arrancar minha cachaça com o seu beijo de batom
               G      D9
Até você aparecer do nada (riff 2)
                     A9                          G  A9  G/B  A/C#
E quem diria que do carro agora até tirei o meu som

(riff 1)


E|------------------------------|
B|--2/3-3-3-3-3--5/7-7-7-5-3-2--|
G|--3/4-4-4-4-4--5/7-7-7-6-4-2--|
D|------------------------------|
A|------------------------------|
E|------------------------------|


(riff 2)


E|-----------------------3-3/5-5--|
B|--2/3-3-3-3-3--5/7-7-7----------|
G|--3/4-4-4-4-4--5/7-7-7-4-4/6-6--|
D|--------------------------------|
A|--------------------------------|
E|--------------------------------|


(Refrão)

    D9                                   A9
E quem me viu se visse hoje não acreditaria (riff 3)
                                   Bm
Que o cachaceiro virou homem de família (riff 4)
                      G    A9
Troquei a noite pelo dia
    D9                                   A9
E quem me viu se visse hoje não acreditaria (riff 5)
                                  Bm
Troquei o bar, agora é só sorveteria (riff 6)
                     G
Só eu e ela, quem diria? 
            A9                D9
Que o cachaceiro virou homem de família (riff 7)

(riff 3)


E|---------------|
B|--3/5-5-3-3/5--|
G|--4/6-6-4-4/6--|
D|---------------|
A|---------------|
E|---------------|


(riff 4)


E|---------------------|
B|--7/8-8-8-8-7-5-7-3--|
G|---------------------|
D|--8/9-9-9-9-7-5-7-4--|
A|---------------------|
E|---------------------|


(riff 5)


E|--3/5-5-3-3/5--|
B|---------------|
G|--4/6-6-4-4/6--|
D|---------------|
A|---------------|
E|---------------|


(riff 6)


E|---------------------|
B|--7/8-8-8-8-7-5-7-3--|
G|--8/9-9-9-9-7-6-7-4--|
D|---------------------|
A|---------------------|
E|---------------------|


(riff 7)


                          A9
E|--------------------X--0--|
B|--3--5--7--7--8--9--X--0--|
G|--2--4--6--6--7--8--X--2--|
D|--0--2--4--4--5--6--X--2--|
A|--------------------X--0--|
E|--------------------X-----|


(solo)


     A9                      Bm
E|-----------------------------------|
B|--4/5-5-5-5-5-5-5--8-8-8----8-7-3--|
G|--5/6-6-6-6-6-6-6--9-9-9-----------|
D|--------------------------9---7-4--|
A|-----------------------------------|
E|-----------------------------------|


                     G        A9
E|-------------------------------------------|
B|------8-8-7-7-7-5--------------------------|
G|------------------4-6-7----4/5-5--5-5--5\--|
D|--7/9-9-9-7-7-7-5-5-7-9----5/6-6--6-6--6\--|
A|-------------------------------------------|
E|-------------------------------------------|


(Pré-refrão)

               G      D9
Até você aparecer do nada (riff 8)
                     A9                        Bm
E arrancar minha cachaça com o seu beijo de batom
               G      D9
Até você aparecer do nada (riff 9)
                     A9                          G  A9  G/B  A/C#
E quem diria que do carro agora até tirei o meu som

(riff 8)


E|--2/3-3-2------5---5-----------------------|
B|-------------------------------------------|
G|--3/4-4-2--2/6---6-------------------------|
D|----------------------0h2-2-2-2/4-4-4------|
A|--------------------------------------5----|
E|----------------------------------------7--|


(riff 9)


E|-------------------------------------------------3--|
B|---------------------------------------2-2-3-5-7----|
G|------------------2-2-2-2-4--2-2-2-2h4-----4-6-7-4--|
D|--0-0-0-0-0-0-2/4-----------------------------------|
A|----------------------------------------------------|
E|----------------------------------------------------|


(Refrão)

    D9                                   A9
E quem me viu se visse hoje não acreditaria (riff 3)
                                   Bm
Que o cachaceiro virou homem de família (riff 4)
                      G    A9
Troquei a noite pelo dia
    D9                                   A9
E quem me viu se visse hoje não acreditaria (riff 5)
                                  Bm
Troquei o bar, agora é só sorveteria (riff 6)
                     G
Só eu e ela, quem diria? 
            A9                D9
Que o cachaceiro virou homem de família (riff 7)

         A9
Acreditaria
                                   Bm
Que o cachaceiro virou homem de família (riff 10)
                      G    A9
Troquei a noite pelo dia
    D9                                   A9
E quem me viu se visse hoje não acreditaria
                                  Bm
Troquei o bar, agora é só sorveteria (riff 6)
                     G
Só eu e ela, quem diria? 
            A9                D9
Que o cachaceiro virou homem de família

(riff 10)


E|---------------------------------------|
B|--4/5-5-5-5-5-5-5--8-8-8----8-7-5-7-3--|
G|--5/6-6-6-6-6-6-6--9-9-9---------------|
D|--------------------------9---7-5-7-4--|
A|---------------------------------------|
E|---------------------------------------|


(solo)


     A9                      Bm
E|--------------------------------------------|
B|--4/5-5-5-5-5-5-5--8-8-8----8-7-3----8-7-3--|
G|--5/6-6-6-6-6-6-6--9-9-9--------------------|
D|--------------------------9---7-4--9---7-4--|
A|--------------------------------------------|
E|--------------------------------------------|


                     G
Só eu e ela, quem diria? 
            A9                G         A9   G/B   A/C#   G/B   D9
Que o cachaceiro virou homem de família


Enviada por Sem inscrição
Nº de acordes: 7