Sem imagem

Made Up Lovesong 43

Guillemots

155 exibições
Tabbed by:Johan Carøe
Email:S*

Tuning:E A D G H e

in this song the guitar are hard to hear, because of all the effects, but it adds a
layer to the song, and it make the songs univers larger.

"Now there's Majesty..."

e|----6-6-6-6-6-6-6-6/9-9-9-9-9-9-9-9-6-6-6-6-6-6-6-6/9-9-9-9-9-9-9-9-----|
B|------------------------------------------------------------------------|
G|------------------------------------------------------------------------|
D|------------------------------------------------------------------------|
A|------------------------------------------------------------------------|
E|------------------------------------------------------------------------|

==========================================================================

after the intro/first part the guitar is:

e|--13-13-13-13-13-13-13-1311-11-11-11-11-11-11-11-119-9-9-9-9-9-9-9---|
B|------------------------------------------------------------------------|
G|------------------------------------------------------------------------|
D|------------------------------------------------------------------------|
A|------------------------------------------------------------------------|
E|------------------------------------------------------------------------|

e|-8-8-8-8----------------------------------------------------------------|
B|----------11-11-9-9-----------------------------------------------------|
G|------------------------------------------------------------------------|
D|------------------------------------------------------------------------|
A|------------------------------------------------------------------------|
E|------------------------------------------------------------------------|

"I love you through sparks and shinning dragons, i do...."

e|--13-13-13-13-13-13-13-1311-11-11-11-11-11-11-11-119-9-9-9-9-9-9-9---|
B|------------------------------------------------------------------------|
G|------------------------------------------------------------------------|
D|------------------------------------------------------------------------|
A|------------------------------------------------------------------------|
E|------------------------------------------------------------------------|

e|-8-8-8-8----------------------------------------------------------------|
B|----------11-11-9-9-----------------------------------------------------|
G|------------------------------------------------------------------------|
D|------------------------------------------------------------------------|
A|------------------------------------------------------------------------|
E|------------------------------------------------------------------------|

"And the symetry..."

e|---13-13-13-13-13-13-13-13----------------------------------------------|
B|----------------------------11-11-11-11-11-11-11-11---------------------|
G|------------------------------------------------------------------------|
D|------------------------------------------------------------------------|
A|------------------------------------------------------------------------|
E|------------------------------------------------------------------------|

repeat both things once

===========================================================================
"You got me off the sofa..."

e|--11----11----11-----13------11-------9-----9----9----11------9---------|
B|-----13----13----13------13------13------11---11---11-----11-----11-----|
G|------------------------------------------------------------------------|
D|------------------------------------------------------------------------|
A|------------------------------------------------------------------------|
E|------------------------------------------------------------------------|

play it twice

==========================================================================

just before solo

"Care...."

e|13-13-13-13-13-13-13-1311-11-11-11-11-11-11-119-9-9-9-9-9-9-9-9-9-9-9-|
B|------------------------------------------------------------------------|
G|------------------------------------------------------------------------|
D|------------------------------------------------------------------------|
A|------------------------------------------------------------------------|
E|------------------------------------------------------------------------|

repeat once
==========================================================================
SOLO

This aint realy a guitar solo, but with lots of delay, and a screaming overdrive you can make
it sound right so i tabbed it anyway... or else you could sing it like on the record :)i 
tabbed it an octave lower since my guitar dont got enough frets, so i use and octave pedal.
e|------------------------------------------------------------------------|
B|-13~13~13~-14~~~~~~~~~~142-----------13~13~13~/18-1816-16-16-14-------|
G|------------------------------------------------------------------------|
D|------------------------------------------------------------------------|
A|------------------------------------------------------------------------|
E|------------------------------------------------------------------------|

e|------------------------------------------------------------------------|
B|--/18-16-16-14--/18-16-16-14--------------------------------------------|
G|------------------------------------------------------------------------|
D|------------------------------------------------------------------------|
A|------------------------------------------------------------------------|
E|------------------------------------------------------------------------|

OUTRO
with a little chorus

repeat this
e|------------------------------------------------------------------------|
B|--------6-9--6---6------------------------------------------------------|
G|----6h8--------8---6----------------------------------------------------|
D|------------------------------------------------------------------------|
A|------------------------------------------------------------------------|
E|------------------------------------------------------------------------|


thats it

Enjoy

| /  slide up
|   slide down
| h  hammer-on
| p  pull-off
| ~  vibrato
| +  harmonic
| x  Mute note
============================================================================


Enviada por jessica_biel
Nº de acordes: 5