Green Day

Wake Me Up When September Ends

Green Day

5.476 exibições
Tom: G
Intro: 
   G
E----------------------------------------------------------------------------------|
B--------3-------3------------3-------3------------3-------3------------3-------3--|
G-----0-------0------------0-------0------------0-------0------------0-------0-----|
D--5-------5------------5-------5------------5-------5------------5-------5--------|
A----------------------------------------------------------------------------------|
E----------------------------------------------------------------------------------|



Verse's 1,2:
   G
E----------------------------------------------------------------------------------|
B--------3-------3------------3-------3------------3-------3------------3-------3--|
G-----0-------0------------0-------0------------0-------0------------0-------0-----|
D--5-------5------------4-------4------------2-------2------------0-------0--------|
A----------------------------------------------------------------------------------|
E----------------------------------------------------------------------------------|
  Summer has           come and passed, the innocent can         never last 

   C                    Cm                   G
E-----------------------------------------------------------------------------------|
B--------5--------5-----------4--------4-----------3--------3-----------3--------3--|
G--------5--------------------5-----------------------0--------0-----------0--------|
D-----5-----5--------------5-----5--------------------------------------------------|
A--3-----------3--------3-----------3-----------------------------------------------|
E--------------------------------------------3--3--------3--------3--3--------3-----|
   Wake me up        when September ends 


   G
E----------------------------------------------------------------------------------|
B--------3-------3------------3-------3------------3-------3------------3-------3--|
G-----0-------0------------0-------0------------0-------0------------0-------0-----|
D--5-------5------------4-------4------------2-------2------------0-------0--------|
A----------------------------------------------------------------------------------|
E----------------------------------------------------------------------------------|
   Like my father's    come to pass,         seven years has     gone so fast 

   C                    Cm                   G
E-----------------------------------------------------------------------------------------|
B--------5--------5-----------4--------4-----------3--------3-----------3-----------3--0--|
G--------5--------------------5-----------------------0--------0-----------0--------------|
D-----5-----5--------------5-----5--------------------------------------------------------|
A--3-----------3--------3-----------3-----------------------------------------------------|
E--------------------------------------------3--3--------3--------3--3--------2--2-----0--|
   Wake me up        when September ends 


Chorus 1:
   E                   Bm                   C                     G
E-----------------------------------------------------------------------------------------|
B--------0-------0----------3-------3---------------5-------------------3-----------3--0--|
G-----0-----0-0----------4-----4-4---------------5-----5-------------0-----0-----0--------|
D---------------------------------------------5-----------5-------------------------------|
A--2------------------2--------------------3----------------------------------------------|
E-----------------------------------------------------------------3-----------2--------0--|
   Here comes the rain again           Falling from the stars

   E                   Bm                   C                      D
E-----------------------------------------------------------------------------------------|
B--------0-------0-----------3-------3------------5--------5-------------7--------7-------|
G-----0-----0-0-----------4-----4-4------------------5----------------------7-------------|
D----------------------------------------------5--------5-------------7--------7----------|
A--2-------------------2--------------------3----------------------5----------------------|
E-----------------------------------------------------------------------------------------|
   Drenched in my     pain again,         becoming who we are 

   G
E----------------------------------------------------------------------------------|
B--------3-------3------------3-------3------------3-------3------------3-------3--|
G-----0-------0------------0-------0------------0-------0------------0-------0-----|
D--5-------5------------4-------4------------2-------2------------0-------0--------|
A----------------------------------------------------------------------------------|
E----------------------------------------------------------------------------------|
  As my memory rests,   but never forgets   what I lost 

   C                    Cm                   G
E-----------------------------------------------------------------------------------|
B--------5--------5-----------4--------4-----------3--------3-----------3--------3--|
G--------5--------------------5-----------------------0--------0-----------0--------|
D-----5-----5--------------5-----5--------------------------------------------------|
A--3-----------3--------3-----------3-----------------------------------------------|
E--------------------------------------------3--3--------3--------3--3--------3-----|
   Wake me up        when September ends 

   G
E----------------------------------------------------------------------------------|
B--------3-------3------------3-------3------------3-------3------------3-------3--|
G-----0-------0------------0-------0------------0-------0------------0-------0-----|
D--5-------5------------5-------5------------5-------5------------5-------5--------|
A----------------------------------------------------------------------------------|
E----------------------------------------------------------------------------------|
                                             (drums start in)

   G
E----------------------------------------|
B--------3-------3------------3-------3--|
G-----0-------0------------0-------0-----|
D--5-------5------------5-------5--------|
A----------------------------------------|
E----------------------------------------|
   (distortion, and what sounds like a second guitar - echo, maybe?)

Verse's 3,4:
   G
E----------------------------------------------------------------------------------|
B--------3-------3------------3-------3------------3-------3------------3-------3--|
G-----0-------0------------0-------0------------0-------0------------0-------0-----|
D--5-------5------------4-------4------------2-------2------------0-------0--------|
A----------------------------------------------------------------------------------|
E----------------------------------------------------------------------------------|
  Summer has           come and passed, the innocent can         never last 

   C                    Cm                   G
E----------------------5-5-5-5-5-5-5-5-----3-3-3-3-3-3-3-3-3-3-3-3--|
B--5-5-5-5-5-5-5-5-----4-4-4-4-4-4-4-4-----3-3-3-3-3-3-3-3-3-3-3-3--|
G--5-5-5-5-5-5-5-5-----5-5-5-5-5-5-5-5-----4-4-4-4-4-4-4-4-4-4-4-4--|
D--5-5-5-5-5-5-5-5-----5-5-5-5-5-5-5-5-----5-5-5-5-5-5-5-5-5-5-5-5--|
A--3-3-3-3-3-3-3-3-----3-3-3-3-3-3-3-3-----5-5-5-5-5-5-5-5-5-5-5-5--|
E------------------------------------------3-3-3-3-3-3-3-3-3-3-3-3--|
   Wake me up         when September ends

   G
E----------------------------------------------------------------------------------|
B--------3-------3------------3-------3------------3-------3------------3-------3--|
G-----0-------0------------0-------0------------0-------0------------0-------0-----|
D--5-------5------------4-------4------------2-------2------------0-------0--------|
A----------------------------------------------------------------------------------|
E----------------------------------------------------------------------------------|
   Ring out the bells again,             like we did when spring began 

   C                    Cm                   G
E----------------------5-5-5-5-5-5-5-5-----3-3-3-3-3-3-3-3-3-3-------|
B--5-5-5-5-5-5-5-5-----4-4-4-4-4-4-4-4-----3-3-3-3-3-3-3-3-3-3-------|
G--5-5-5-5-5-5-5-5-----5-5-5-5-5-5-5-5-----4-4-4-4-4-4-4-4-4-4-------|
D--5-5-5-5-5-5-5-5-----5-5-5-5-5-5-5-5-----5-5-5-5-5-5-5-5-5-5--4-4--|
A--3-3-3-3-3-3-3-3-----3-3-3-3-3-3-3-3-----5-5-5-5-5-5-5-5-5-5--4-4--|
E------------------------------------------3-3-3-3-3-3-3-3-3-3--2-2--|
   Wake me up         when September ends


Chorus 2:
(no lead parts, just chords now)
E              Bm
Here comes the rain again 
C                G     F#
Falling from the stars
E              Bm
Drenched in my pain again 
C               D
Becoming who we are

   G
E----------------------------------------------------------------------------------|
B--------3-------3------------3-------3------------3-------3------------3-------3--|
G-----0-------0------------0-------0------------0-------0------------0-------0-----|
D--5-------5------------4-------4------------2-------2------------0-------0--------|
A----------------------------------------------------------------------------------|
E----------------------------------------------------------------------------------|
  As my memory rests,   but never forgets   what I lost 

   C                    Cm                   G
E----------------------5-5-5-5-5-5-5-5-----3-3-3-3-3-3-3-3-3-3-------|
B--5-5-5-5-5-5-5-5-----4-4-4-4-4-4-4-4-----3-3-3-3-3-3-3-3-3-3-------|
G--5-5-5-5-5-5-5-5-----5-5-5-5-5-5-5-5-----4-4-4-4-4-4-4-4-4-4-------|
D--5-5-5-5-5-5-5-5-----5-5-5-5-5-5-5-5-----5-5-5-5-5-5-5-5-5-5--4-4--|
A--3-3-3-3-3-3-3-3-----3-3-3-3-3-3-3-3-----5-5-5-5-5-5-5-5-5-5--4-4--|
E------------------------------------------3-3-3-3-3-3-3-3-3-3--2-2--|
   Wake me up         when September ends

Solo:

E--6/7---7-----7---7---------7-----7---7--------8-----8---8--------10-----10---10--|
B--7/8-8---8-8---8-------7-7---7-7---7------8-8---8-8---8------8-8----8-8----8-----|
G----------------------------------------------------------------------------------|
D----------------------------------------------------------------------------------|
A----------------------------------------------------------------------------------|
E----------------------------------------------------------------------------------|

E------7-----7---7---------7-----7---7--------8-----8---8----|
B--8-8---8-8---8-------7-7---7-7---7------8-8---8-8---8------|
G------------------------------------------------------------|
D------------------------------------------------------------|
A------------------------------------------------------------|
E------------------------------------------------------------|

E--10-10-10-10-10-10-10-10---10-10-10-10-10-10-10-10---|     \
B--8--8--8--8--8--8--8--8----10-10-10-10-10-10-10-10---|      |
G------------------------------------------------------|      |  (repeat 2x)
D------------------------------------------------------|      |
A------------------------------------------------------|      |
E------------------------------------------------------|     /

E--10~--|-------------------------------------------------------------------------------|
B--8~~--|--------3-------3-----------3-------3-----------3-------3-----------3-------3--|
G-------|-----0-------0-----------0-------0-----------0-------0-----------0-------0-----|
D-------|--5-------5-----------5-------5-----------5-------5-----------5-------5--------|
A-------|-------------------------------------------------------------------------------|
E-------|-------------------------------------------------------------------------------|

Verse's 5,6:
   G
E----------------------------------------------------------------------------------|
B--------3-------3------------3-------3------------3-------3------------3-------3--|
G-----0-------0------------0-------0------------0-------0------------0-------0-----|
D--5-------5------------4-------4------------2-------2------------0-------0--------|
A----------------------------------------------------------------------------------|
E----------------------------------------------------------------------------------|
  Summer has           come and passed, the innocent can         never last 

   C                    Cm                   G
E----------------------5-5-5-5-5-5-5-5-----3-3-3-3-3-3-3-3-3-3-3-3--|
B--5-5-5-5-5-5-5-5-----4-4-4-4-4-4-4-4-----3-3-3-3-3-3-3-3-3-3-3-3--|
G--5-5-5-5-5-5-5-5-----5-5-5-5-5-5-5-5-----4-4-4-4-4-4-4-4-4-4-4-4--|
D--5-5-5-5-5-5-5-5-----5-5-5-5-5-5-5-5-----5-5-5-5-5-5-5-5-5-5-5-5--|
A--3-3-3-3-3-3-3-3-----3-3-3-3-3-3-3-3-----5-5-5-5-5-5-5-5-5-5-5-5--|
E------------------------------------------3-3-3-3-3-3-3-3-3-3-3-3--|
   Wake me up         when September ends

   G
E----------------------------------------------------------------------------------|
B--------3-------3------------3-------3------------3-------3------------3-------3--|
G-----0-------0------------0-------0------------0-------0------------0-------0-----|
D--5-------5------------4-------4------------2-------2------------0-------0--------|
A----------------------------------------------------------------------------------|
E----------------------------------------------------------------------------------|
   Like my father's    come to pass,         twenty years has     gone so fast  

   C                    Cm                   G
E----------------------5-5-5-5-5-5-5-5-----3-3-3-3-3-3-3-3-3-3-3-3--|    \
B--5-5-5-5-5-5-5-5-----4-4-4-4-4-4-4-4-----3-3-3-3-3-3-3-3-3-3-3-3--|    |
G--5-5-5-5-5-5-5-5-----5-5-5-5-5-5-5-5-----4-4-4-4-4-4-4-4-4-4-4-4--|    |  (repeat 3x)
D--5-5-5-5-5-5-5-5-----5-5-5-5-5-5-5-5-----5-5-5-5-5-5-5-5-5-5-5-5--|    |
A--3-3-3-3-3-3-3-3-----3-3-3-3-3-3-3-3-----5-5-5-5-5-5-5-5-5-5-5-5--|    |
E------------------------------------------3-3-3-3-3-3-3-3-3-3-3-3--|    /
   Wake me up         when September ends


Outro:

E------10-----10--------10-----10--------10-----10-------10-----|
B--8-8----8-8-------8-8----8-8-------8-8----8-8-------8------8--|
G---------------------------------------------------------------|
D---------------------------------------------------------------|
A---------------------------------------------------------------|
E---------------------------------------------------------------|


Enviada por Sem inscrição
Nº de acordes: 7