Tom: D
Intro: (D9/B A4 G9 D/F#) 2X

e|--7----7--7—7--|--5---5—--5---5---5---5---5--|--0—0—0—0--|--0—0—0—0--|--0—0—0--| o
B|--0----0--0—0--|--0---0---0---0---0---0---0--|--3—3—3—3--|--3—3—3—3--|--3—3—3--| o
G|--7----7--7—7--|--6---6---6---6---6---6---7--|--0—0—0—0--|--0—0—0—0--|--0—0—0--| o
D|--0----0--0—0--|--0---0---0---0---0---0---0--|--5—5—5—5--|--4—4—4—4--|--5—4—0--| o
A|--x----x--x—x--|--x---x---x---x---x---x---x--|--x—x—x—x--|--x—x—x—x--|--x—x—5--| o
E|--7----7--7—7--|--7---7---7---7---7---7---7--|--3—3—3—3--|--3—3—3—3--|--3—3—3--| o


    D9/B          A4       G
And I´d give up forever to touch you
         D9/B          A4          G
´Cause I know that you feel me somehow
           D9/B       A4          G
You´re the closest to heaven that I´ll ever be
      D9/B       A4               G
And I don´t want to go home right now
    D9/B       A4           G
And all I can taste is this moment
    D9/B       A4             G
And all I can breathe is your life
    D9/B      A4         G
And sooner or later it´s over
       D9/B          A4         G
I just don´t want to miss you tonight

Refrão: (D9/B A4 G)
And I don´t want the world to see me
´Cause I don´t think they´d understand
When everything´s made to be broken
I just want you to know who I am

Intro: (D9/B A4 G9 D/F#) 2X

(D9/B A4 G)
And you can´t fight the tears that ain´t coming
Or the moment of truth in your lies
When everything feels like the movies
Yeah you bleed just to know you´re alive

Refrão: 2x (D9/B A4 G) 
And I don´t want the world to see me
´Cause I don´t think they´d understand
When everything´s made to be broken
I just want you to know who I am

Solinho| [2 Vezes]
e|----7—7—7—7--|--5—5—5—5—5—5—5----|--3—3—3—3--|--0—0—0—0--------| o
B|----0—0—0—0--|--0—0—0—0—0—0—0----|--0—0—0—0--|--3—3—3—3--------| o
G|----7—7—7—7--|--6—6—6—6—6—6—7----|--4—4—4—4--|--0—0—0—0--------| o
D|----0—0—0—0--|--0—0—0—0-0—0—0----|--0—0—0—0--|--0—0—0—0--------| o
A|-------------|-------------------|-----------|-----------------| x
E|-------------|-------------------|-----------|-----------------| x

Bm A A4 G [4 Vezes]


Solo| Média distorção e todas as notas tocadas com bends!

e|----------------------------------------------------------|
B|----------------------------------------------------------|
G|----------------------------11----------11-----------16---|
D|--------12-11--------12-14-----------12----11-------------|
A|-10/12--------10/12------------10/12----------12/14-------|
E|----------------------------------------------------------|

e|-------------------------------------------||
B|----------------------14-15-14--------14---||
G|---------------11--14-----------14---------||
D|--------12-14---------------------14-------||
A|-10/12-------------------------------------||


Solinho| [4 Vezes]
e|----7—7—7—7--|--5—5—5—5—5—5—5--|--3—3—3—3--|--0—0—0—0--------|
B|----0—0—0—0--|--0—0—0—0—0—0—0--|--0—0—0—0--|--3—3—3—3--------|
G|----7—7—7—7--|--6—6—6—6—6—6—7--|--4—4—4—4--|--0—0—0—0--------|
D|----0—0—0—0--|--0—0—0—0-0—0—0--|--0—0—0—0--|--0—0—0—0--------|
A|-------------|-----------------|-----------|-----------------|
E|-------------|-----------------|-----------|-----------------|



Refrão: 2x (D9/B A4 G)
And I don´t want the world to see me
´Cause I don´t think they´d understand
When everything´s made to be broken
I just want you to know who I am


Enviada por Sem inscrição
Nº de acordes: 9