Frejat

Segredos

Frejat

11.338 exibições
Tom: G

    G          Am7
E|--6/7---------5------5--------------
B|---------8--------------7-----5-----  
G|---------------------------------7--   (3x)
D|------------------------------------        
A|------------------------------------
E|------------------------------------

G                   D/F#  
 Eu procuro um amor 
      C9
que ainda não encontrei
G              D/F#       C9  
 Diferente de todos que amei
G                              D/F#    C9 
 Nos seus olhos quero descobrir uma razão para viver
        G                     D/F#     C9  
E as feridas dessa vida eu quero esquecer
      Em                         D/F#        
Pode ser que eu a encontre numa fila de cinema
          Em     D/F#         C9 
Numa esquina ou numa mesa de bar

    G                D/F#         C9  
Procuro um amor que seja bom pra mim
      G           D/F#     C9  
Vou procurar eu vou até o fim
      Em                      D/F# 
E eu vou tratá-la bem pra que ela não tenha medo
        C9             G              Am
Quando começar a conhecer os meus segredos

    G          Am7
E|--6/7---------5------5--------------
B|---------8--------------7-----5-----  
G|---------------------------------7--  (3x)
D|------------------------------------        
A|------------------------------------
E|------------------------------------

G                          C9  
 Eu procuro um amor uma razão para viver
        G                   D/F#       C9  
E as feridas dessa vida eu quero esquecer
       Em                      D/F#  
Pode ser que eu gagueje sem saber o que falar
           Em          D/F#            C9  
Mas eu disfarço e não saio sem ela de lá

    G                D/F#         C9  
Procuro um amor que seja bom pra mim
      G           D/F#     C9  
Vou procurar eu vou até o fim
      Em                      D/F# 
E eu vou tratá-la bem pra que ela não tenha medo
        C9             G              Am
Quando começar a conhecer os meus segredos

G  D/F#    C9   C7 
G  D/F#    C9   G  Am7  Am 

E|------7b----12----------7--7-5-3-----------------3-3-5-3------3----3----6--5--3-
B|---8-----------10b--------------------------3h5-------------5----5----3----------
G|---------------------------------------------------------------------------------
D|---------------------------------------------------------------------------------
A|---------------------------------------------------------------------------------
E|---------------------------------------------------------------------------------

E|------7b---12------------------------------3-3-----6--5--3------3-----3---5--0---
B|--5h8---------10b----------------------3h5-------5-------------5----5------------
G|---------------------------------------------------------------------------------
D|---------------------------------------------------------------------------------
A|---------------------------------------------------------------------------------
E|---------------------------------------------------------------------------------

E|--0--1/12------15---12-15-12-15--12-15-12--18-17-15-------------------------
B|----------------------------------------------------------------------------
G|----------------------------------------------------------------------------
D|----------------------------------------------------------------------------
A|----------------------------------------------------------------------------
E|----------------------------------------------------------------------------

    G                D/F#         C9  
Procuro um amor que seja bom pra mim
      G           D/F#     C9  
Vou procurar eu vou até o fim
    G                D/F#         C9  
Procuro um amor que seja bom pra mim
      G          D/F#      C9  
Vou procurar eu vou até o fim...

OBS.: A introdução pode ser tocada dessa maneira:
E|--7-------5--------------
B|-----8--------7---5------  3 Vezes
G|----------------------7--
D|-------------------------
A|-------------------------
E|-------------------------


Enviada por Sem inscrição
Correção por equipepegacifras
Nº de acordes: 7