Fernando e Sorocaba

Falo Ou Não Falo

Fernando e Sorocaba

397 exibições
Tom: D
Intro: A

D                    A
Falo ou não falo, me dá um beijo
Bm                     G
Falo ou não falo, que te desejo
D                     A
Falo ou não falo, eu falo agora
   Bm                     G
Se não ficar comigo ser amigo só não rola

Solo: D  A  Bm  G

E|-----2---------------------2----------------
B|-------5-3-2-2/3/2-------------5-3-2-3-5/7--
G|-2-4---------------4---2-4------------------
D|--------------------------------------------
A|--------------------------------------------
E|--------------------------------------------

E|-----2-5-3-2--------------------------------
B|-------------5-5/3--3/2------------2-3-5-3--
G|-2-4---------------------4-2-4-2-4----------
D|--------------------------------------------
A|--------------------------------------------
E|--------------------------------------------


D              A                Bm
Sabe quando deseja algo que não tem
           F#m                    G   Em
Imagina em sonhos, quer ir mais além
             A
Mas você não tem

Bm                                          G
Já decorei o teu sorriso, seu jeito de olhar
                                        D
To ensaiando em pensamento pra me declarar
                                   A
Agora que tenho a oportunidade não vou te deixar escapar


Enviada por Sem inscrição
Nº de acordes: 6