Elliott Smith

Between The Bars

Elliott Smith

1.163 exibições
Tom: Am
Intro: Am7

Am7
Drink up baby,

F9
Stay up all night

         C
With the things you could do,

    G6
You won't but you might.

     Am7
The potential you'll be,

     F9
That you'll never see

    C         E        F
The promises you'll only make.

Am7
Drink up with me now,

  F9
Forget all about

    C
The pressure of days

G6
Do what I say

Am7
And I'll make you okay,

F9
Drive them away,

    C      E             F
The images stuck in your head:


F     G
The people

Am     Riff 1
You've been before that you

F      G          
Don't want 

Am
Around any more

      F         G
They push, and shove

Am     Riff 2               F
And won't bend to your will

F              Fm
I'll keep them still.



Then its the same for the rest of the song:



Drink up baby,

Look at the stars.

I'll kiss you again

Between the bars.

I keep seeing you there,

With your hands in the air

Waiting to finally be caught.

Drink up one more time,

And I'll make you mine.

Keep you apart,

Deep in my heart.

Separate from the rest

Where I like you the best

And keep the things you forgot.

The people you've been before

That you don't want around anymore

They push, and shove

And won't bend to your will.

I'll keep them still.

Fm


RIFF 1:
   Am                F         Fm
E |-0-0------------|-1----------1---|
B |-1-1------------|-2----------1---|
G |-2-2------------|-3----------3---|
D |-2-2-----0-2-3--|-3----------3---|
A |-0-0-2-3--------|-1----------1---|
E |-x-x------------|-1----------1---|


RIFF 2:

   Am                F         Fm
E |-0-0------------|-1----------1---|
B |-1-1------------|-2----------1---|
G |-2-2------------|-3----------3---|
D |-2-2-------0-2--|-3----------3---|
A |-0-0-2-3-3------|-1----------1---|
E |-x-x------------|-1----------1---|


Enviada por Sem inscrição
Nº de acordes: 9